E-----------------------------------
B----------------------0------------
G-2-0---2-0------0-0-2---2-0-2-----
D-----0--------2--------------------
A-----------------------------------
E-----------------------------------
looks like we made it look how far we've come my baby

E-----------------------------------
B-------------------------0---------
G---0-2-0---2-0-----0-0-2---2-0-2---
D-0-------0-------2-----------------
A-----------------------------------
E-----------------------------------
we might have took the long way but we new we'd get there some day

E-----------------------------------
B-3---3---------0-------------------
G---0---0---0-2---2-----------------
D---------2-------------------------
A-----------------------------------
E-----------------------------------
they said i bet they'll never make it

E-----------------------------------
B-----------------------------------
G-------0-----2-----------0-----2---
D-0-------------3-0-0-------------3-
A---3-2---2-3---------3-2---2-3-----
E-----------------------------------
but just liook at us holding on we're still together still going strong

E-----------------------------------
B---0-0-----------------------------
G-------0---------------------------
D-0---------------------------------
A-----------------------------------
E-----------------------------------
you're still the one

E-----------------------------------
B---0---------0-----1-0-------0-----
G-0---2-0-------2-2-----2-0-----2---
D---------3-2---------------3-------
A-----------------------------------
E-----------------------------------
you're still the one i run to the one that I belong to

E-----------------------------------
B---0-------------------------------
G-2---2-0-----2-0-------------------
D---------3-2-----------------------
A-----------------------------------
E-----------------------------------
your still the one I want for life

E-----------------------------------
B---0-0-----------------------------
G-------0---------------------------
D-0---------------------------------
A-----------------------------------
E-----------------------------------
you're still the one

E-----------------------------------
B---0---------0-----1-0-------0-----
G-0---2-0-------2-2-----2-0-----2---
D---------3-2---------------3-------
A-----------------------------------
E-----------------------------------
you're still the one that i love the only one i dream of

E-----------------------------------
B---0-------------------------------
G-2---2-0-----2-0-------------------
D---------3-2-----------------------
A-----------------------------------
E-----------------------------------
you're still the one i kiss good night

~play hole thing again
then play...

E-----------------------------------
B---0-0-----------------------------
G-2-----2---0-2-0---2-0-------------
D-----------------0-----------------
A-----------------------------------
E-----------------------------------

E-----------------------------------
B---------0-------------------------
G-0-0-0-2---2-0-2-------------------
D-----------------------------------
A-----------------------------------
E-----------------------------------
thank for useing my tabs!!!!




Ваше мнение



Капча