Band: MxPx
Song: Whats Mine Is Yours
Album: Slowly Going the Way of the Buffalo
Copyright: 1998 Whats Mine is Mine
Music & Lyrics: Mike Hererra
Tabbed by: Erik Davis ([email protected])
INTRO (#1)
G------------------------------------------------
D------------------------------------------------
A----5----0----3---------------------------------
E-------------------3----------------------------
VERSE (#2)
G------------------------------------------------
D------------------------------------------------
A----5---------0----55--000--55--000-------------
E---------3--------------------------------------
G------------------------------------------------
D------------------------------------------------
A----5---------0----5----4-----------------------
E---------3--------------------------------------
CHORUS (#3)
G------------------------------------------------
D------------------------------------------------
A----2----0---------5----------------------------
E--------------3---------------------------------
G------------------------------------------------
D------------------------------------------------
A----2----0---------5----4-----------------------
E--------------3---------------------------------
BRIDGE (#4)
G------------------------------------------------
D------------------------------------------------
A----5---------------5---------------------------
E-------------------------------------3----------
END (#5)
G----------
D----------
A----5-----
E----------

order to play:
1,2,3,1,2,3,4,3,3,5




Ваше мнение



Капча