Band: MxPx
Song: Want Ad
Album: Pokinatcha
Copyright info: Tooth & Nail 1994
Music & Lyrics: Mike Herrera
Tabbed by Chuck Green: ([email protected])
Alright suckers, here's the deal, I've only been playing
for two months, I'm not that good, and this might be
wrong, but, Want Ad's a phat song, and I think it should
be on here. If it's wrong, please e-mail me. By the way,
I'm not really writing the words how they go with the
music, but you can just play it so it feels right.
Verse 1:
I need the kind of girl that knows
G|--------------------------------|
D|--------------------------------|
A|-9-9-9--------------------------|
E|-------11-11-11-7-7-7-7-7-7-7-7-|
A girl that likes to wear my clothes
G|-----------------------------|
D|-----------------------------|
A|-7-7-7-2-2-2-4-4-4-4-4-4-4-4-|
E|-----------------------------|
Someone who always buys me coke
G|--------------------------------|
D|--------------------------------|
A|-9-9-9--------------------------|
E|-------11-11-11-7-7-7-7-7-7-7-7-|
Someone who laughs at all my jokes
G|---------------------|
D|---------------------|
A|-7-7-7-2-2-2-4-6-7-8-|
E|---------------------|
Chorus:
That's the girl that I want to see fall in love with me
G|-------------------------------------------------|
D|-------------------------------------------------|
A|-9-9-9-9-9-9-------------6-6-6-6-6-6-7-7-7-7-7-7-|
E|-------------7-7-7-7-7-7-------------------------|
Well, now everything really just repeats itself 'till the outro which is:
G|-------------------|
D|-------------------|
A|-9-9---------------|
E|-----11-11-7-7-9-9-|
That repeats and then you end on:
G|---|
D|---|
A|-9-|
E|---|
There it is bro, if there's a problem, just bust a move and e'mail yo' compaint.




Ваше мнение



Капча