Song: Walking Bye
Artist: MxPx
Album: Pokinatcha
Tabbed By: Paul Assaad ([email protected])
This one should have been tabbed ages ago.
Intro (1)
G|----------------------------------------|
D|----6----8----10------------------------|
A|-8>---8>---8>----8-6--6-4------6-8ring--|
E|--------------------6----4-6-8----------|
Verse (repeat as necessary) (2)
G|----------------------------------------|
D|----------------------------------------|
A|-8>-------------------------------------|
E|----4>-6>-------------------------------|
Pre-Chorus (3)
G|-----------------------------------------|
D|---6---6---6-8-6-------------------------|
A|-8---8---8-------------------------------|
E|-----------------------------------------|
Chorus (repeat as necessary) (4)
G|----------------------------------------|
D|--------5---5-----------5---5-----------|
A|-8-6--6---6---6--8-6--6---6---6---------|
E|----------------------------------------|
Post-Chorus (5)
G|----------------------------------------|
D|---------------6---6--------------------|
A|-8--8--------8---8----------------------|
E|-------4--6-----------------------------|
First Two Endings (6)
G|----------------------------------------|
D|-6-5------------------------------------|
A|-----8-6-5-6-8--------------------------|
E|----------------------------------------|
Finale (7)
G|----------------------------------------|
D|-6-5---8-6-5----------------------------|
A|-----8-------8--------------------------|
E|----------------------------------------|
Order: 1, 2, 3, 4, 5, 6
2, 3, 4, 5, 6
2, 3, 4, 5, 7




Ваше мнение



Капча