===================================================================
Unsaid - MxPx
===================================================================

Tabbed by: punkROCKSerfer
Email: [email protected]

~= let ring
*= palm mute
X= pick scratch
/ = slide

Intro
e|----------------| |------------|
B|----------------| |------------| Play the whole
G|--------777-X-X-| |-99-X-X-777-| intro twice
D|-77-X-X-777-X-X-| X3 |-99-X-X-777-|
A|-77-X-X-555-X-X-| |-77-X-X-555-|
E|-55-X-X---------| |------------|

Verse 1 (Somewhere deep inside....)
e|-------------------------------------------------------------|
B|-------------------------------------------------------------|
G|-----------------444444-777777--------777-X-X--------777-X-X-|
D|-7~-7777-7~-7777-444444-777777-77-X-X-777-X-X-77-X-X-777-X-X-| X2
A|-7~-7777-7~-7777-222222-555555-77-X-X-555-X-X-77-X-X-555-X-X-|
E|-5~-5555-5~-5555---------------55-X-X---------55-X-X---------|
* *

Pre-Chorus (I was thinking....)
e|----------------------------------|
B|----------------------------------|
G|-44444444-77777777-99999999-2-2-2-|
D|-44444444-77777777-99999999-2-2-2-|
A|-22222222-55555555-77777777-0-0-0-|
E|----------------------------------|
******** ******** ********

Chorus (Some things are....)
e|-------------------------------------------------X-X-X-X-|
B|-------------------------------------------------X-X-X-X-|
G|------------6666666666-4444444444-77777777777777-X-X-X-X-|
D|-7777777777-6666666666-4444444444-77777777777777-X-X-X-X-|
A|-7777777777-4444444444-2222222222-55555555555555-X-X-X-X-|
E|-5555555555--------------------------------------X-X-X-X-|

Post-Chorus
e|----------------| |------------|
B|----------------| |------------|
G|--------777-X-X-| |-99-X-X-777-|
D|-77-X-X-777-X-X-| X3 |-99-X-X-777-|
A|-77-X-X-555-X-X-| |-77-X-X-555-|
E|-55-X-X---------| |------------|

Verse 2 (Is there something....)
e|-------------------------------------------------------------|
B|-------------------------------------------------------------|
G|-----------------444444-777777--------777-X-X--------777-X-X-|
D|-7~-7777-7~-7777-444444-777777-77-X-X-777-X-X-77-X-X-777-X-X-| X2
A|-7~-7777-7~-7777-222222-555555-77-X-X-555-X-X-77-X-X-555-X-X-|
E|-5~-5555-5~-5555---------------55-X-X---------55-X-X---------|
* *

Pre-Chorus (I was thinking....)
e|----------------------------------|
B|----------------------------------|
G|-44444444-77777777-99999999-2-2-2-|
D|-44444444-77777777-99999999-2-2-2-|
A|-22222222-55555555-77777777-0-0-0-|
E|----------------------------------|
******** ******** ********

Chorus (Some things are....)
e|-------------------------------------------------X-X-X-X-|
B|-------------------------------------------------X-X-X-X-|
G|------------6666666666-4444444444-77777777777777-X-X-X-X-|
D|-7777777777-6666666666-4444444444-77777777777777-X-X-X-X-|
A|-7777777777-4444444444-2222222222-55555555555555-X-X-X-X-|
E|-5555555555--------------------------------------X-X-X-X-|

Chorus con't.
e|--------------------------------------------------|
B|--------------------------------------------------|
G|------------6666666666-4444444444-77777777777777~-|
D|-7777777777-6666666666-4444444444-77777777777777~-|
A|-7777777777-4444444444-2222222222-55555555555555~-|
E|-5555555555---------------------------------------|

Bridge (What kind of person....)
e|----------------------------------------------------------------|
B|----------------------------------------------------------------|
G|-------4~--------------7~-4~-------------------4----44/66/77/99-|
D|-7~-4~-4~-2~-7-77-7-77-7~-4~-2~-7~6~-4-44-4-44-4-22-44/66/77/99-|
A|-7~-4~-2~-2~-7-77-7-77-5~-2~-2~-7~6~-4-44-4-44-2-22-22/44/55/77-|
E|-5~-2~----0~-5-55-5-55-------0~-5~4~-2-22-2-22---00-------------|

Solo - Rhythm Guitar (Whoooaaaaaa....)
e|----------------------------------------------------------------|
B|----------------------------------------------------------------|
G|-----------------777777777777777----------------444-666-777-999-|
D|-777777777777777-777777777777777-77777777777777-444-666-777-999-|
A|-777777777777777-555555555555555-77777777777777-222-444-555-777-|
E|-555555555555555-----------------55555555555555-----------------|

Chorus (Some things are....)
e|-------------------------------------------------X-X-X-X-|
B|-------------------------------------------------X-X-X-X-|
G|------------6666666666-4444444444-77777777777777-X-X-X-X-|
D|-7777777777-6666666666-4444444444-77777777777777-X-X-X-X-|
A|-7777777777-4444444444-2222222222-55555555555555-X-X-X-X-|
E|-5555555555--------------------------------------X-X-X-X-|

Chorus con't.
e|----------------------------------------------------|
B|----------------------------------------------------|
G|------------6666666666-4444444444-77777777777777777-|
D|-7777777777-6666666666-4444444444-77777777777777777-|
A|-7777777777-4444444444-2222222222-55555555555555555-|
E|-5555555555-----------------------------------------|

Outro (Whoooaaaaaa....)
e|---------------------------------|
B|---------------------------------|
G|-----------------777777777777777-|
D|-777777777777777-777777777777777-| X3
A|-777777777777777-555555555555555-|
E|-555555555555555-----------------|

Outro con't.
e|----------------------------------|
B|----------------------------------|
G|----------------444-666-777-999---|
D|-77777777777777-444-666-777-999-7~|
A|-77777777777777-222-444-555-777-7~|
E|-55555555555555-----------------5~|




Ваше мнение



Капча