TOMORROW’S ANOTHER DAY - MxPx
Tabbed by Guillaume Landry ([email protected])
Intro: part1
e|-----------------------------------------------------------------------------|
B|-----------------------------------------------------------------------------|
G|-----------------------------------------------------------------------------|
D|----4-x-x-x--4-x-x-x--4-4-4-4--4-4-4-4---------------------------------------|
A|----4-x-x-x--4-x-x-x--4-4-4-4--4-4-4-4---------------------------------------|
E|----2-x-x-x--2-x-x-x--2-2-2-2--2-2-2-2---------------------------------------|
Part2: x2
e|-------------------------------|1.---------|2.-------------------------------|
B|-------------------------------|-----------|---------------------------------|
G|----4-x-x-x-----------6-x-x-x--|-----------|---------------------------------|
D|----4-x-x-x--4-x-x-x--6-x-x-x--|--2-x-x-x--|--2—let ring...------------------|
A|----2-x-x-x--4-x-x-x--4-x-x-x--|--2-x-x-x--|--2------------------------------|
E|-------------2-x-x-x-----------|--0-x-x-x--|--0------------------------------|
Riff: And time flies...
e|-----------------------------------------------------------------------------|
B|-----------------------------------------------------------------------------|
G|----4-4-4-4-----------6-6-6-6-------------x4---------------------------------|
D|----4-4-4-4--4-4-4-4--6-6-6-6--2-2-2-2---------------------------------------|
A|----2-2-2-2—-4-4-4-4--4-4-4-4--2-2-2-2---------------------------------------|
E|-------------2-2-2-2-----------0-0-0-0---------------------------------------|
Chorus: I don’t want to let my life...
e|-----------------------------------------------------------------------------|
B|-----------------------------------------------------------------------------|
G|----4-4-----------------------------------x2---------------------------------|
D|----4-4------4-4------2-2-2-2--2-2-2-2----------2-2-2-2--2-2-2-2-------------|
A|----2-2------4-4------2-2-2-2--2-2-2-2----------2-2-2-2--2-2-2-2-------------|
E|-------------2-2------0-0-0-0--0-0-0-0----------0-0-0-0--0-0-0-0-------------|
After 1st chorus:
e|-----------------------------------------------------------------------------|
B|-----------------------------------------------------------------------------|
G|---------------------------------------x2--------6---------------------------|
D|----13-11--9--8---14-13-11-14-13-11--------9--4--6--2-x-x-x------------------|
A|-----x--x--x--x----x--x--x--x--x--x--------9--4--4--2-x-x-x------------------|
E|----11--9—-7—-6---12-11--9-12-11—-9--------7--2-----0-x-x-x------------------|
Riff x1
Chorus x1
e|-----------------------------------------------------------------------------|
B|-----------------------------------------------------------------------------|
G|----4----4----------6----6---------------------------------------------------|
D|----4----4--4----4--6----6--2--2--4--4---------------------------------------|
A|----2----2--4----4--4----4--2—-2--4--4---------------------------------------|
E|------------2----2----------0—-0--2--2---------------------------------------|

e|-----------------------------------------------------------------------------|
B|-----------------------------------------------------------------------------|
G|----4-4-4-4-----------6-6-6-6-------------x4---------------------------------|
D|----4-4-4-4--4-4-4-4--6-6-6-6--2-2-4-4---------------------------------------|
A|----2-2-2-2--4-4-4-4--4-4-4-4--2-2-4-4---------------------------------------|
E|-------------2-2-2-2-----------0-0-2-2---------------------------------------|
e|-----------------------------------------------------------------------------|
B|-----------------------------------------------------------------------------|
G|----------------------------------------------------------x2-----------------|
D|----13-13-13-----13-13-13-----13-13-13-14--13-11----11-----------------------|
A|-------------14-----------14---------------------14--------------------------|
E|-----------------------------------------------------------------------------|
e|-----------------------------------------------------------------------------|
B|-----------------------------------------------------------------------------|
G|----11-(...)-----------------x2----------------------------------------------|
D|--------------13-11----11----------------------------------------------------|
A|--------------------14-------------------------------------------------------|
E|-----------------------------------------------------------------------------|




Ваше мнение



Капча