Artist: MxPx
Song: Tomorrow's Another Day
Album: Slowly Going The Way Of The Buffalo
Tabbed By: Jed Howell
|--PM--|:Palm Muted
Intro: e -------|
B -------|
G -------|:A bunch of times
D ---4---|
A ---4---|
E ---2---|
I don't want to...
B9 F# Db E
e --------------------|
B --------------------|
G --4-----------------|
D --4----4---6----2---|
A --2----4---6----2---|
E -------2---4----0---|
Faster Section
B9 F# B9 E
e ---------------------|
B ---------------------|
G ---4-------4---------|
D ---4---4---4---2-----|
A ---2---4---2---2-----|
E -------2-------0-----|
I don't want to let mt life fly by...
B9 F# E
e ---------------------|
B ---------------------|
G ----4-4--------------|
D ----4-4---4-4---2----|
A ----2-2---4-4---2----|
E ----------2-2---0----|
Solo after chorus:
Slower part Part where it speeds up
e --------------|---------------------|
B ---5--4-------|-5-4------5-4--------|
G ---------6--4-|------6-4-------6-4--|
D --------------|---------------------|
A --------------|---------------------|
E --------------|---------------------|
Then play verse and chorus again
After solo:
B9 F# Db E
e --------------------|
B --------------------|
G ---4-------6--------|
D ---4---4---4---2----|
A ---2---4---4---2----|
E -------2-------0----|
|--PM--|
After second chorus
B9 F# Db E F#
e ----------------------|
B ----------------------|
G ---4-------6----------|
D ---4---4---6---2--4---|
A ---2---4---4---2--4---|
E -------2-------0--2---|
I didn't show how many times to strum the chords, but if you listen to the song it's
pretty easy to figure out. Hope you enjoy.




Ваше мнение



Капча