#----------------------------------PLEASE NOTE--------------------------------#
#This file is the author's own work and represents their interpretation of the#
#song. You may only use this file for private study, scholarship, or research.#
#-----------------------------------------------------------------------------#
Date: Tue, 5 May 1998 21:08:02 -0600
From: Doug Reid
Subject: m/mxpx/today_is_in_my_way.crd
MxPx: Today is in my way
----------------------------------------------------------------------------
By: Chris Reid
Intro / Verse
e|-------------------------------------------------------------------------|
B|-------------------------------------------------------------------------|
G|--------5-------------------2--------------------------------------------|
D|--------5---------5---------2----------3---------------------------------|
A|--------3---------5---------0----------3---------------------------------|
E|------------------3--------------------1---------------------------------|
>
>
Pre-Chorus
e|------------------------------------------------------------------------|
B|------------------------------------------------------------------------|
G|----------------------------5-------------------------------------------|
D|-------7----------3---------5-----------5-------------------------------|
A|-------7----------3---------3-----------5-------------------------------|
E|-------5----------1---------------------3-------------------------------|
>
Chorus
e|-----------------------------------------------------------------------|
B|-----------------------------------------------------------------------|
G|--------5--------------------------------------------------------------|
D|--------5----------3----------7-----------5----------------------------|
A|--------3----------3----------7-----------5----------------------------|
E|-------------------1----------5-----------3----------------------------|
>
Bass solo
G|---------------------------------------------------------------------------|
D|-----------------------5555555555/ 7777777777---33333--222--00-------------|
A|--3333333333---------------------------------------------------------------|
E|---------------------------------------------------------------------------|
>
There's a little riff at the start and also towards the end. I'll post it
later.
This is a fairly easy song to play. I noticed that there aren't many MxPx
songs out there, so more tabs will follow.
If you have any questions, comments, corrections, or just want to complain
about the fact that there are no MxPx tabs on the web, email
[email protected]
[email protected]====




Ваше мнение



Капча