Song: Time and Season
Artist: MxPx
Album: The Broken Bones LP
Tabbed By: Paul Assaad ([email protected])

Here’s a pretty cool song. Some of the bass riffs are hard to hear on the
CD, so you’ll have to trust me.

Intro (Repeat as necessary) (1)
G|----------------------------------------
D|----------------------------------------
A|-----6-5-4----4-5-6----6-5-4----4-5-6---
E|--4>-------2>-------4>-------2>---------
(2)
G|----------------------------------------
D|----------------------------------------
A|--7-------------------------------------
E|----7-----------------------------------

Verse (3)
G|----------------------------------------
D|----------------------------------------
A|--------6>------------------------------
E|--4>-7>----6>---------------------------

Prechorus (4)
G|----------------------------------------
D|----------------------------------------
A|--4>-6>----7>--4>-6>--------------------
E|--------4>-----------4-3-2-1------------

Chorus (5)
G|----------------------------------------
D|----------------------------------------
A|--------2>--------2>--------------------
E|--0>-2>-----0>-2>-----------------------

Bridge before second verse (6)
G|----------------------------------------
D|----------------------------------------
A|----------------------------------------
E|--4>--0>--------------------------------

Finale (7)
G|----------------------------------------
D|----------------------------------------
A|-----7>-----6>-----7>-----6>------------
E|--4>-----4>-----4>-----4>-----4-3-2-1--0

OK here’s the order:
1), 2), 3), 4), 5), 6), 2), 3), 4), 5), 7)

In the chorus, I’m pretty sure the bass doesn’t have that cool rising line
that the guitar does (I think it just sticks with the B). It’s pretty easy
to figure out if you want to play it. Also, I’m not 100% about the very last
note in the song. Other than that, ENJOY!




Ваше мнение



Капча