Song: Think Twice
Band: Mxpx
Album: Pokinatcha
tabbed by: Eeric J.
Play notes more than once
Verse:
G:---------------------------------------------------------------
D:---------------------------------------------------------------
A:------4-----2--------------------------------------------------
E:---4-----5-----------------------------------------------------
Pre-Chorus:
G:---------------------------------------------------------------
D:---------------------------------------------------------------
A:------2--------------------------------------------------------
E:---5-----------------------------------------------------------
Chorus:
G:---------------------------------------------------------------
D:---------------------------------------------------------------
A:---7-----2-----------------------------------------------------
E:------5--------------------------------------------------------
Bridge:
G:---------------------------------------------------------------
D:---------------------------------------------------------------
A:---7--4-----7--4-----------------------------------------------
E:---------4-----------------------------------------------------




Ваше мнение



Капча