#-----------------------------------------------------------------------------#
#-- File created with Instab - http://www.pconline.com/~smcarey/instab.html --#
#-----------------------------------------------------------------------------#
Author/Artist: MxPx
Title: The Theme Fiasco
Album: Slowly Going the Way of the Buffalo
Transcribed by: Jordan Williams
Guitar
-----------------------------------------------------------------------------|
-----------------------------------------------------------------------------|
-----------------------------------------------------------------------------|
-5-5------------5-5------------5-5--2-----------5-5--2-----------------------|
-5-5------------5-5------------5-5--------------5-5--------------------------|
-3-3------------3-3------------3-3--------------3-3--------------------------|
bass plays bass plays bass plays bass plays
-----------------------------------------------------------------------------|
-----------------------------------------------------------------------------|
-------3-3-3-3------3-3-3-3------3-3-3-3-------3-3-3-3------3----------------|
--5-5--2-2-2-2-5-5--2-2-2-2-5-5--2-2-2-2--5-5--2-2-2-2-5-5--2----------------|
--5-5----------5-5----------5-5-----------5-5----------5-5-------------------|
--3-3----------3-3----------3-3-----------3-3----------3-3-------------------|
bass plays
--------------------|--------------------|-----------------------------------|
--------------------|--------------------|-----------------------------------|
--10---11---12---13-|--10---11---12---13-|--10---11---12---13----------------|
--7----8----9----10-|--7----8----9----10-|--7----8----9----10----------------|
--------------------|--------------------|-----------------------------------|
--------------------|--------------------|-----------------------------------|
bass plays
------------------------------------------------------------------------------|
------------------------------------------------------------------------------|
---------------------------2-2------------------------------------------------|
-2-2---2-2---2-2-----2-2---2-2---5-5----2-2---2-2---2-2----5-5--7-7----5-5----|
-2-2---2-2---2-2-----2-2---0-0---5-5----2-2---2-2---2-2----5-5--7-7----5-5----|
-0-0---0-0---0-0-----0-0---------3-3----0-0---0-0---0-0----3-3--5-5----3-3----|
--------------------|--------------------------------------------------------|
--------------------|--------------------------------------------------------|
--------------------|-----3/----4/----5/---6/----7/---8/---9/---------|
--2-2--2-2-------5--|-----2------3------4-----5------6-----7-----8-----------|
--2-2--2-2-------5--|--------------------------------------------------------|
--0-0--0-0-------3--|--------------------------------------------------------|
drums 4x
-----------------------------------------------------------------------------|
-----------------------------------------------------------------------------|
-----------------------------------------------------------------------------|
--5-5------------5-5------------5-5-2----------5-5-2----------5-5------------|
--5-5------------5-5------------5-5------------5-5------------5-5------------|
--3-3------------3-3------------3-3------------3-3------------3-3------------|
bass plays bass plays bass plays bass plays
--------------------------------------------|---------------------------------|
--------------------------------------------|---------------------------------|
-3-3-3-3------3-3-3-3------3-3-3-3------3---|---------------------------------|
-2-2-2-2-5-5--2-2-2-2-5-5--2-2-2-2-5-5--2---|---------------------------------|
---------5-5----------5-5----------5-5------|---------------------------------|
---------3-3----------3-3----------3-3------|---------------------------------|




Ваше мнение



Капча