Mxpx,Talk Of The Town.
Tabbed by cristian ahern,[email protected]

INTRO

e------------
b------------
g------------ (2X)
d-----7------
a-----7------
e-----5------

e-------------------------------------
b-------------------------------------
g---------------------------5/-7------ (2X)
d-----7-7/-5-5/----7/---/5--5/-7------
a-----7-7/-5-5/-0/-7/-0/-5--3/-5------
e-----5-5/-3-3/-0/-5/-0/-3------------

e-------------------------------------
b-------------------------------------
g-----7-7-7-7-7-7/-8/-9/-8/-9/--------
d-----7-7-7-7-7-7/-8/-9/-8/-9/--------
a-----5-5-5-5-5-5/-6/-7/-6/-7/--------
e-------------------------------------

VERSE

e------------------------------------
b------------------------------------
g----------------------5/-7/-8------- (4X)
d-----7-7-7-7-7-7-5-5--5/-7/-8-------
a-----7-7-7-7-7-7-5-5--3/-5/-6-------
e-----5-5-5-5-5-5-3-3----------------

e----------------------------------------------
b----------------------------------------------
g-----------------------------------5/-7/-8---- (2X)
d-----7-7/-5-5/-7-7/-5-5/-7-7/-5-5--5/-7/-8----
a-----7-7/-5-5/-7-7/-5-5/-7-7/-5-5--3/-5/-6----
e-----5-5/-3-3/-5-5/-3-3/-5-5/-3-3-------------

CHORUS

e------------------------------------------------------------
b------------------------------------------------------------
g------------------5-5-5-5-5-5---------------7-7-7/-8/-9----- (4X)
d-----7-7-7-7-7-7--5-5-5-5-5-5--5-5-5-5-5-5--7-7-7/-8/-9-----
a-----7-7-7-7-7-7--3-3-3-3-3-3--5-5-5-5-5-5--5-5-5/-6/-7-----
e-----5-5-5-5-5-5---------------3-3-3-3-3-3------------------

BREAK

e-------------------------------------------
b-------------------------------------------
g-------------------5-----------5-----------
d-----7----7----7---5---5---7---5---5-------
a-----7----7----7---3---5---7---3---5-------
e-----5----5----5-------3---5-------3-------

CHORUS

e---------------------------------------------------------------
b---------------------------------------------------------------
g------------------5-5-5-5-5-5---------------7-7-7/-8/-9--------
d-----7-7-7-7-7-7--5-5-5-5-5-5--5-5-5-5-5-5--7-7-7/-8/-9-------- (4X)
a-----7-7-7-7-7-7--3-3-3-3-3-3--5-5-5-5-5-5--5-5-5/-6/-7--------
e-----5-5-5-5-5-5---------------3-3-3-3-3-3---------------------

e------------------------------
b------------------------------
g-----------5/-7/-8/-7/-5------
d-----7-----5/-7/-8/-7/-5------
a-----7-----3/-5/-6/-5/-3------
e-----5------------------------

e-----------------------------------
b-----------------------------------
g----------------5/-7/-8/-7/-5------ (3X)
d-----7-7-5-5-5--5/-7/-8/-7/-5------
a-----7-7-5-5-5--3/-5/-6/-5/-3------
e-----5-5-3-3-3---------------------

OUTRO

e-----------------------------------------------------
b-----------------------------------------------------
g----------5-5-5-7-7-7/-8/-7/-5-------5-5-8-----------
d-----7-7--5-5-5-7-7-7/-8/-7/-5--7-7--5-5-8--7--------
a-----7-5--3-3-3-5-5-5/-6/-5/-3--7-7--3-3-6--7--------
e-----5-5------------------------5-5---------5--------




Ваше мнение



Капча