Song: Suggestion Box
Artist: MxPx
Album: Let it Happen/ 17
Tabbed By: Paul Assaad ([email protected])
I’m not gonna lie to you and say “This was an easy song to figure out.” In
the intro, the bass plays along with the guitar only for the 1st two notes.
I’m quite sure this is entirely accurate.
Intro (1)
G|-----------------------------------------
D|-----------------------------------------
A|-----9-10-9-7-9---4-5-4-2-4---5-7-5-4-5-7
E|--77-------------------------------------
(Repeat this part as needed) (2)
G|-----------------------------------------
D|-----------------------------------------
A|--2-4-5-7-5-4---5-4-5-0-5-4-5------------
E|--------------3--------------------------
1st Time Finale (3)
G|-----------------*-----------------------
D|-----------------*-----------------------
A|-----------------*-----------------2-----
E|--3-5--3-5—-3-5--*--3-5--3-5--3-5--------
(4)
G|-----------------------------------------
D|-----------------------------------------
A|--2>-4>-5>-------------------------------
E|-----------5>----------------------------
(5)
G|-----------------------------------------
D|-----------------------------------------
A|--2>-5-4-5-------------------------------
E|-----------------------------------------
(6)
G|-----------------------------------------
D|-----------------------------------------
A|----0-4-0----------0-4-77----------------
E|--2-------4-4h5--2-----------------------

OK, here’s the order:
(1), (2), (3), (4), (5), (6), (2), (4), (5), (6), (2), (3)




Ваше мнение



Капча