ok here's the solo thingy at the end of southbound, this is my first tab so if it sucks then email me and email me if it's good. it sounds perfect to me so here it goes........

1:17
Riff 1
E---------------------------------|
B---------------------------------|
G-----------------------4h5-4-----|
D--0-5-4-5-7-5---7-5-7--------7---|2x
A--------------3------------------|
E---------------------------------|
Riff 2
E---------------------------------|
B---------------------------------|
G----7---5--4h5-4-----------------|
D--5---5----------7---------------|2x
A---------------------------------|
E---------------------------------|
Riff 3
E----------------------------------|
B----------------------------------|
G----7---5--4h5-4---------4-5-4----|
D--5---5----------5-7---7-------5-7|
A----------------------------------|
E----------------------------------|

Order of Solo:
Riff 1
Riff 2
Riff 3
Riff 2
Riff 3
Riff 1

End on D--5-----|
(or)
G--0-----|
enjoy

[email protected]




Ваше мнение



Капча