Song: Sorry, so Sorry
Artist: MxPx
Album: Life in General
Tabbed By: Paul Assaad ([email protected])
This is my favorite MxPx song of all time. Enjoy!
After Guitar Intro: (1)
G|----------------------------------------
D|--------2-------------------------------
A|--2--2----------------------------------
E|----------------------------------------
Verse: (2)
G|----------------------------------------
D|--2>------2>----------2>----------------
A|------0>------2>--0>------2>------------
E|----------------------------------------
Chorus Part 1: (Repeat 1st part) (3)
G|--------------*-------------------------
D|--------------*-------------------------
A|--0--2--4--0--*--0>--2>-----------------
E|--------------*-------------------------
Bridge: (4)
G|----------------------------------------
D|--2>------------------------------------
A|----------------------------------------
E|----------------------------------------
Chorus Part 2: (Slow Part) (5)
G|----------------------------------------
D|----------------------------------------
A|--4-----4--0-----4--0-----4—-0-----4--2>
E|-----4--------0--------0--------0-------
Second Intro into Verse (6)
G|----------------------------------------
D|--2>--------2---------------------------
A|------2--2------------------------------
E|----------------------------------------
Finale (7)
G|----------------------------------------
D|----------------------------------2-----
A|--0--2--4--0--0--2--4--0--0>--2>--------
E|----------------------------------------
Order: (1),(2),(2),(3),(4),(5),(5),(6),(2),(3),(7).




Ваше мнение



Капча