Standard Tuning
INTRO - 1x (let the beginning chords ring then strum the lat one fastly)
E|---------------------------------------------------------------------|
B|---------------------------------------------------------------------|
G|-7-----------7--------12-12-12-12-12-12-12-12-12-12-12-12-12-12-12-12|
D|-7--7--5--7--7--7--5--12-12-12-12-12-12-12-12-12-12-12-12-12-12-12-12|
A|-5--7--5--7--5--7--5--10-10-10-10-10-10-10-10-10-10-10-10-10-10-10-10|
E|----5--3--5-----5--3-------------------------------------------------|

VERSE - 2x
E|----------------------------------------------------|
B|----------------------------------------------------|
G|-77xx7777xxxx77xx7777xxxx---------------------------|
D|-77xx7777xxxx77xx7777xxxx55xx5555xxxx55xx5555xxxx---|
A|-55xx5555xxxx55xx5555xxxx55xx5555xxxx55xx5555xxxx---|
E|-------------------------33xx3333xxxx33xx3333xxxx---|
CHORUS - 2x
E|----------------------------------------------------|
B|----------------------------------------------------|
G|---------------------77xx7777xxxx77xx7777xxxx-------|
D|-77777777-5555-7777--77xx7777xxxx77xx7777xxxx-------|
A|-77777777-5555-7777--55xx5555xxxx55xx5555xxxx-------|
E|-55555555-3333-5555---------------------------------|

VERSE 2 - 2x
E|-----------------------------------------------------------------------|
B|-----------------------------------------------------------------------|
G|---7---------------7---------------------------------------------------|
D|-----7---5-7-5-7-----7---5-7-5-7---5555555555555555555555555555555-----|
A|--5----5----------5----5-----------5555555555555555555555555555555-----|
E|-----------------------------------3333333333333333333333333333333-----|

CHORUS - 2x
E|----------------------------------------------------|
B|----------------------------------------------------|
G|---------------------77xx7777xxxx77xx7777xxxx-------|
D|-77777777-5555-7777--77xx7777xxxx77xx7777xxxx-------|
A|-77777777-5555-7777--55xx5555xxxx55xx5555xxxx-------|
E|-55555555-3333-5555---------------------------------|
SOLO - 1x
E|--10-----------------10------------------------------------|
B|-----10-----------10----10-----------10--------------------|
G|--------12--11-12----------12--11-12----12-11----12-11-----|
D|----------------------------------------------12-------12--|
A|-----------------------------------------------------------|
E|-----------------------------------------------------------|
E|--10-----------------10------------------------------------|
B|-----10-----------10----10-----------10--------------------|
G|--------12--11-12----------12--11-12----12-11----12-11-12--|
D|----------------------------------------------12-----------|
A|-----------------------------------------------------------|
E|-----------------------------------------------------------|
ENDING CHORUS
E|---------------------------------------------------------------------|
B|---------------------------------------------------------------------|
G|--------------------------------------77xx7777xxxx77xx7777xxxx-------|
D|-7-----------5-----------7------------77xx7777xxxx77xx7777xxxx-------|
A|-7-(let ring)5-(let ring)7-(let ring)-55xx5555xxxx55xx5555xxxx-------|
E|-5-----------3-----------5-------------------------------------------|
E|---------------------------------------|
B|---------------------------------------|
G|--------77xx7777xxxx77xx7777xxxx-------|
D|-7-5-7--77xx7777xxxx77xx7777xxxx-------|
A|-7-5-7--55xx5555xxxx55xx5555xxxx-------|
E|-5-3-5---------------------------------|
Thats it! Any questions or comments e-mail me at [email protected]
Thanks for looking and PLEASE RATE ITS MY 2ND TAB!!!!
~Jared~




Ваше мнение



Капча