Mxpx - Sick Boy
By:Andrew ([email protected])

Intro/Verse/Chorus
e|---------------------------------------------------------------------------|
B|---------------------------------------------------------------------------|
G|---------7-7-7-9-9-9---------7-7-7-7-4-4-4-4-------------------------------|
D|-7-7-7-7-7-7-7-9-9-9-7-7-7-7-7-7-7-7-4-4-4-4-------------------------------|
A|-7-7-7-7-5-5-5-7-7-7-7-7-7-7-5-5-5-5-2-2-2-2-------------------------------|
E|-5-5-5-5-------------5-5-5-5-----------------------------------------------|

Verse 2 Palm Mute

Verse 3
e|-x-x-x-------------x-x-x---------------------------------------------------|
B|-x-x-x-------------x-x-x---------------------------------------------------|
G|-x-x-x-7-7-7-9-9-9-x-x-x-7-7-7-9-9-9---------------------------------------|
D|-x-x-x-7-7-7-9-9-9-x-x-x-7-7-7-9-9-9---------------------------------------|
A|-x-x-x-5-5-5-7-7-7-x-x-x-5-5-5-7-7-7---------------------------------------|
E|-x-x-x-------------x-x-x---------------------------------------------------|




Ваше мнение



Капча