Hey this is my first tab, I started back in January and have tabbed many songs for myself but never for the net. Anyway, I hope you take the time to learn this song, it's really cool. They are great live. Oh, and if anyone can send me the tab for Sum 41's \"Makes No Difference\" I would be ever so grateful. Here it is...

Intro - (4x)
e -------------------
B -------------------
G -9---9-------------
D -9-9-9(8x)-7-------
A -7-9-7-----7-(4x)--
E ---7-------5-------

*Then
e -----
B -----
G -9---
D -9-9-
A -7-9-
E ---7-

Verse - (2x)
e --------------------------------------
B --------------------------------------
G --------------------------------------
D -----2-2---7-7---2-2---7-7-7-7-7-7-7-7
A -----2-2---7-7---2-2---7-7-7-7-7-7-7-7
E -----0-0---5-5---0-0---5-5-5-5-5-5-5-5

Pre-Chorus
e --------------------------------------------------------
B --------------------------------------------------------
G --------------------------------------------------------
D -9------7------2------7------2------7------9------7-----
A -9-(8x)-7-(8x)-2-(5x)-7-(3x)-2-(4x)-7-(3x)-9-(8x)-7-(8x)
E -7------5------0------5------0------5------7------5-----

Chorus - (3x)
e -----------------
B -----------------
G -----------------
D -2-2-2-2-7-7-9-9-
A -2-2-2-2-7-7-9-9-
E -0-0-0-0-5-5-7-7-

@Then
e -----------------
B -----------------
G -----------------
D -11----2-7-------
A -11----2-7-(8x)--
E --9----0-5-------

Then - (2x)
e ---------
B ---------
G -9---9-9-
D -9-9-9-9-
A -7-9-7-7-
E ---7-----

Repeat *, Verse, Pre-chorus, and chorus
Then
D U D U
e -X-X-X-X------------------------------------
B -X-X-X-X------------------------------------
G -X-X-X-X-9-------6-----------------------9--
D -X-X-X-X-9-(12x)-6-(12x)-9-------7-------9-9
A -X-X-X-X-7-------4-------9-(12x)-7-(12x)-7-9
E -X-X-X-X-----------------7-------5---------7

Then
e ---------------------------------------
B ---------------------------------------
G --9-------6-----------------------9----
D --9-(12x)-6-(12x)-9-------7-------9-9-7
A --7-------4-------9-(12x)-7-(12x)-7-9-7
E ------------------7-------5---------7-5

After That (hey, it's better than \"then\" each time)
Intro - (2x)
e -------------------
B -------------------
G -9---9-------------
D -9-9-9(8x)-7-------
A -7-9-7-----7-(4x)--
E ---7-------5-------

Then
e -----
B -----
G -9---
D -9-9-
A -7-9-
E ---7-

Chorus and @

After that... (3x)
e ----------------------
B ----------------------
G ----------------------
D -2------7------9------
A -2-(8x)-7-(4x)-9-(4x)-
E -0------5------7------

Ending
e ------------------------
B ------------------------
G ------------------------
D -11------7------9------2
A -11-(4x)-7-(4x)-9-(4x)-2
E --9------5------7------0




Ваше мнение



Капча