-------------------------------------------------------------------------------
Responsibility - MxPx
-------------------------------------------------------------------------------
Tabbed by: Brian
Email: [email protected]
Tuning:Standard
(Figure out the strumming pattern)
Intro
Guitar 1
e|---------------------------------------------------------------------------| X4
B|---------------------------------------------------------------------------|
G|---9--------9--------------------------------------------------------------|
D|---9--9-----9->---7--------------------------------------------------------|
A|---7--9-----7-----7->------------------------------------------------------|
E|------7-----------5--------------------------------------------------------|
Guitar 2
e|---------------------------------------------------------------------------| X4
B|---------------------------------------------------------------------------|
G|---9-----------------------------------------------------------------------|
D|---9--9------6---9---6-------7---------------------------------------------|
A|---7--9----7---7---7---7-0-0-----------------------------------------------|
E|------7--------------------------------------------------------------------|
Verse (0:13)
Guitar 1
e|---------------------------------------------------------------------------| X2
B|---------------------------------------------------------------------------|
G|----------2-2-----------2--------------------------------------------------|
D|--2-2-----2-2----2-2----2->------------------------------------------------|
A|--2-2-----0-0----2-2----0--------------------------------------------------|
E|--0-0------------0-0-------------------------------------------------------|
Pre-Chorus (0:25)
e|---------------------------------------------------------------------------|
B|---------------------------------------------------------------------------|
G|--4-----2----------2-2-2--------2-2-2---4---2------------------------------|
D|--4->---2->----2---2-2-2---2----2-2-2---4---2------------------------------|
A|--2-----0------2---0-0-0---2----0-0-0---2---0------------------------------|
E|---------------0-----------0-----------------------------------------------|
Chorus (0:33)
e|---------------------------------------------------------------------------| X3
B|---------------------------------------------------------------------------|
G|--------2----4-------------------------------------------------------------|
D|--2-----2->--4->-----------------------------------------------------------|
A|--2->---0----2-------------------------------------------------------------|
E|--0------------------------------------------------------------------------|
e|---------------------------------------------------------------------------|
B|--5------------------------------------------------------------------------|
G|--6----2--4----------------------------------------------------------------|
D|--6----2--4->--------------------------------------------------------------|
A|--4----0--2----------------------------------------------------------------|
E|---------------------------------------------------------------------------|
Interlude (0:48)
e|---------------------------------------------------------------------------| X2
B|---------------------------------------------------------------------------|
G|--9------9--9--------------------------------------------------------------|
D|--9--9---9--9-------------------------------------------------------------|
A|--7--9---7--7--------------------------------------------------------------|
E|-----7---------------------------------------------------------------------|
e|---------------------------------------------------------------------------|
B|---------------------------------------------------------------------------|
G|--9------------------------------------------------------------------------|
D|--9--9---------------------------------------------------------------------|
A|--7--9---------------------------------------------------------------------|
E|-----7---------------------------------------------------------------------|
Verse
Pre- Chorus
Chorus

Bridge
e|---------------------------------------------------------------------------|
B|---------------------------------------------------------------------------|
G|---9-----------------------9-----------------------------------------------|
D|---9->--11----9----7-------9--9--------------------------------------------|
A|---7----11->--9->--7->-----7--9--------------------------------------------|
E|--------9-----7----5----------7--------------------------------------------|
Guitar 1 repeat bridge
Gutar 2
e|---------------------------------------------------------------------------|
B|---------------------------------------------------------------------------|
G|--8---9----11---9---8--9----8--6--9--8--6----------------------------------|
D|-------->---------------->-------------------------------------------------|
A|--6---7----9----7---6--7----6--4--7--6--4----------------------------------|
E|---------------------------------------------------------------------------|
Guitar 1 &2
e|---------------------------------------------------------------------------| X2
B|---------------------------------------------------------------------------|
G|--9------------------------------------------------------------------------|
D|--9--9--7------------------------------------------------------------------|
A|--7--9--7------------------------------------------------------------------|
E|-----7--5------------------------------------------------------------------|
Intro (X2)
Chorus (X2)
Outro
e|---------------------------------------------------------------------------|
B|---------------------------------------------------------------------------|
G|--6----2----4----6----2---4------------------------------------------------|
D|--6->--2->--4->--6->--2->-4->--2-------------------------------------------|
A|--4----0----2----4----0---2----2-------------------------------------------|
E|-------------------------------0-------------------------------------------|

| / slide up
| slide down
| h hammer-on
| p pull-off
| ~ vibrato
| + harmonic
| x Mute note
| > Keep Strumming
===============================================================================




Ваше мнение



Капча