Song: PxPx
Artist: MxPx
Album: Pokinatcha

Intro-bass riff

G--------------------------------------------------------------------
D--------------------------------------------------------------------
A-------33---55----5-4-3---------------------------------------------
E--33-55---33---33---------------------------------------------------
The Verse goes,
G--------------------------------------------------------------------
D--------------------------------------------------------------------
A------------33333-----------55555----------33333------------55555---
E--333---555-------333---555--------333--555------333---555----------
The Chorus Goes,
G--------------------------------------------------------------------
D--------------------------------------------------------------------
A------3--------333-----3-------555-----3-------333-----3-------555--
E--3-5---3-3--5-----3-5---3-3-5-----3-5---3-3-5-----3-5---3-3-5------




Ваше мнение



Капча