========================================================
Prove It To The World - MxpX
========================================================

Tabbed by: punkROCKSerfer
Email: [email protected]

~= let ring
*= palm mute
/ = slide
X= pick scratch

Intro - Guitar 1
e|---------------------|
B|---------------------|
G|---------------------|
D|-5555-4444-2222-3333-|
A|---------------------|
E|---------------------|

Intro - Guitar 2 (played with guitar 1)
e|------------------|
B|------------------|
G|------------------|
D|-5~--5--5~-5--5~--|
A|-5~--5--5~-5--5~--|
E|-3~--3--3~-3--3~--|

Verse 1 (I can't hold back....)
e|---------------------|
B|---------------------|
G|-----------5555-7777-|
D|-5555-9999-5555-7777-| X2
A|-5555-9999-3333-5555-|
E|-3333-7777-----------|

Pre-Chorus (And what does this....)
e|----------------------------------|
B|----------------------------------|
G|------7777-9999------555555555555-|
D|-5555-7777-9999-9999-555555555555-|
A|-5555-5555-7777-9999-333333333333-|
E|-3333-----------7777--------------|
*******

Chorus (I'm gonna prove....)
e|-------------------------------------------|
B|-------------------------------------------|
G|-------------5-------------5-------------7-|
D|-5-X-4-X-2-X-5-5-X-4-X-2-X-5-5-X-9-X-2-X-7-|
A|-5-X-4-X-2-X-3-5-X-4-X-2-X-3-5-X-9-X-2-X-5-|
E|-3-X-2-X-0-X---3-X-2-X-0-X---3-X-7-X-0-X---|

Post-Chorus
e|-------------------------------------------|
B|-------------------------------------------|
G|-------4-4--------5-5-------4-4--------7-7-|
D|-5-5-X-4-4--2-2-X-5-5-5-5-X-4-4--2-2-X-7-7-|
A|-5-5-X-2-2--2-2-X-3-3-5-5-X-2-2--2-2-X-5-5-|
E|-3-3-X------0-0-X-----3-3-X------0-0-X-----|

Bridge - Guitar 1
e|---------------------|
B|---------------------|
G|---------------------|
D|-5555-4444-2222-3333-|
A|---------------------|
E|---------------------|

Bridge - Guitar 2 (played with guitar 1)
e|------------------|
B|------------------|
G|------------------|
D|-5~--5--5~-5--5~--|
A|-5~--5--5~-5--5~--|
E|-3~--3--3~-3--3~--|

Verse 2 (Can't ascertain....)
e|---------------------|
B|---------------------|
G|-----------5555-7777-|
D|-5555-9999-5555-7777-| X2
A|-5555-9999-3333-5555-|
E|-3333-7777-----------|

Pre-Chorus (And what does this....)
e|----------------------------------|
B|----------------------------------|
G|------7777-9999------555555555555-|
D|-5555-7777-9999-9999-555555555555-|
A|-5555-5555-7777-9999-333333333333-|
E|-3333-----------7777--------------|
*******

Chorus (I'm gonna prove....)
e|-------------------------------------------|
B|-------------------------------------------|
G|-------------5-------------5-------------7-|
D|-5-X-4-X-2-X-5-5-X-4-X-2-X-5-5-X-9-X-2-X-7-|
A|-5-X-4-X-2-X-3-5-X-4-X-2-X-3-5-X-9-X-2-X-5-|
E|-3-X-2-X-0-X---3-X-2-X-0-X---3-X-7-X-0-X---|

Post-Chorus
e|-------------------------------------------|
B|-------------------------------------------|
G|-------4-4--------5-5-------4-4--------7-7-|
D|-5-5-X-4-4--2-2-X-5-5-5-5-X-4-4--2-2-X-7-7-|
A|-5-5-X-2-2--2-2-X-3-3-5-5-X-2-2--2-2-X-5-5-|
E|-3-3-X------0-0-X-----3-3-X------0-0-X-----|

Solo - Guitar 1
e|---------------------------------------|
B|---------------------------------------|
G|---------------------------------------|
D|-5~------------------------------------| X3
A|-5~------------------------------------|
E|-3~-3/5/72~-2/3/5-0~-0-2/3/10~-875~-|

Solo - Guitar 2 (Whoa oh....) (joins Guitar 1)
e|---------------------------------------------|
B|---------------------------------------------|
G|----------------------------------7777777777-|
D|-5555555555-9999999999-2222222222-7777777777-| X2
A|-5555555555-9999999999-2222222222-5555555555-|
E|-3333333333-7777777777-0000000000------------|
********** ********** ********** **********

Chorus (I'm gonna prove....)
e|-------------------------------------------
B|-------------------------------------------
G|-------------5-------------5-------------7-
D|-5-X-4-X-2-X-5-5-X-4-X-2-X-5-5-X-9-X-2-X-7-
A|-5-X-4-X-2-X-3-5-X-4-X-2-X-3-5-X-9-X-2-X-5-
E|-3-X-2-X-0-X---3-X-2-X-0-X---3-X-7-X-0-X---

Chorus con't.
e|---------------------|
B|---------------------|
G|----------------5555-|
D|-5555-4444-2222-5555-|
A|-5555-4444-2222-3333-|
E|-3333-2222-0000------|

Chorus (played differently)
e|-----------------------------------------
B|-----------------------------------------
G|----------------5555----------------5555-
D|-5555-9999-2222-5555-5555-9999-2222-5555-
A|-5555-9999-2222-3333-5555-9999-2222-3333-
E|-3333-7777-0000------3333-7777-0000------

Chorus con't.
e|---------------|
B|---------------|
G|-------------5-|
D|-5-X-9-X-2-X-5-| X3
A|-5-X-9-X-2-X-3-|
E|-3-X-7-X-0-X---|

Post-Chorus (So here I go....)
e|-------------------------------------------|
B|-------------------------------------------|
G|-------4-4--------5-5-------4-4--------5-5-|
D|-5-5-X-4-4--2-2-X-5-5-5-5-X-4-4--2-2-X-5-5-|
A|-5-5-X-2-2--2-2-X-3-3-5-5-X-2-2--2-2-X-3-3-|
E|-3-3-X------0-0-X-----3-3-X------0-0-X-----|

Post-Chorus con't.
e|-----------------------------------------------|
B|-----------------------------------------------|
G|-------4-4--------5-5-------4-4--------7-7-----|
D|-5-5-X-4-4--2-2-X-5-5-5-5-X-4-4--2-2-X-7-7--5~-|
A|-5-5-X-2-2--2-2-X-3-3-5-5-X-2-2--2-2-X-5-5--5~-|
E|-3-3-X------0-0-X-----3-3-X------0-0-X------3~-|




Ваше мнение



Капча