Mxpx - Oh Donna
By:Andrew ([email protected])

Verse 1
e|-2-2-2-2--3-3-3-3----------------------------------------------------------|
B|-3-3-3-3--3-3-3-3--2-2-2-2-------------------------------------------------|
G|-2-2-2-2--0-0-0-0--2-2-2-2-------------------------------------------------|
D|----------0-0-0-0--2-2-2-2-------------------------------------------------|
A|----------2-2-2-2----------------------------------------------------------|
E|----------3-3-3-3----------------------------------------------------------|
Verse 2 (Distortion Kicks in)
e|---------------------------------------------------------------------------|
B|---------------------------------------------------------------------------|
G|-7-7-7-7-------------------------------------------------------------------|
D|-7-7-7-7--5-5-5-5--7-7-7-7-------------------------------------------------|
A|-5-5-5-5--5-5-5-5--7-7-7-7-------------------------------------------------|
E|----------3-3-3-3--5-5-5-5-------------------------------------------------|
Chorus
e|-2-2-2-2--3-3-3-3----------------------------------------------------------|
B|-3-3-3-3--3-3-3-3--2-2-2-2-------------------------------------------------|
G|-2-2-2-2--0-0-0-0--2-2-2-2-------------------------------------------------|
D|----------0-0-0-0--2-2-2-2-------------------------------------------------|
A|----------2-2-2-2----------------------------------------------------------|
E|----------3-3-3-3----------------------------------------------------------|




Ваше мнение



Капча