NEXT BIG THING - Mxpx

By:Dan([email protected])

Intro/Chorus
e|---------------------------------------------------------------------------|
B|---------------------------------------------------------------------------|
G|-----------9-9-----------9-9-----------9-9---------------------------------|
D|-2-7-7-9-9-9-9-2-7-7-9-9-9-9-2-7-7-9-9-9-9-9-9-9-9-9-9-9-9-----------------|
A|-2-7-7-9-9-7-7-2-7-7-9-9-7-7-2-7-7-9-9-7-7-9-9-9-9-9-9-9-9-----------------|
E|-0-5-5-7-7-----0-5-5-7-7-----0-5-5-7-7-----7-7-7-7-7-7-7-7-----------------|

Verse
e|---------------------------------------------------------------------------|
B|---------------------------------------------------------------------------|
G|---------------------------------------------------------------------------|
D|-2-2-2-2-7-7-7-7-9-9-9-9-9-9-9-9-------------------------------------------|
A|-2-2-2-2-7-7-7-7-9-9-9-9-9-9-9-9-------------------------------------------|
E|-0-0-0-0-5-5-5-5-7-7-7-7-7-7-7-7-------------------------------------------|
pm.................................

Pre-Chorus
e|---------------------------------------------------------------------------|
B|---------------------------------------------------------------------------|
G|------------------9-9-9-9-9-9-9-9-7-x-7-x-7-x-7-x--------------------------|
D|--7-x-7-x-7-x-7-x-9-9-9-9-9-9-9-9-7-x-7-x-7-x-7-x-9-9-9-9-9-9-9-9----------|
A|--7-x-7-x-7-x-7-x-7-7-7-7-7-7-7-7-5-x-5-x-5-x-5-x-9-9-9-9-9-9-9-9----------|
E|--5-x-5-x-5-x-5-x---------------------------------7-7-7-7-7-7-7-7----------|




Ваше мнение



Капча