Artist: MxPx
Song: Never Learn
Album: 10
Tabed By: Stafford
E-mail: [email protected]
Intro
e----5--4----5--4---5-4-5-------------------------------------------|
B--5-------5------5-------------------------------------------------|
G-------------------------------------------------------------------|
D-------------------------------------------------------------------|
A-------------------------------------------------------------------|
E-------------------------------------------------------------------|
Chorus
e--------|--------|--------|----------------------------------------|
B--------|--------|--------|----------------------------------------|
G--7-----|--------|--4-----|----------------------------------------|
D--7-----|--7-----|--4-----|----------------------------------------|
A--9--X8-|--7-----|--2--X4-|----------------------------------------|
E--------|--5--X4-|--------|----------------------------------------|
Verse
e--------|--------|--------|----------------------------------------|
B--------|--------|--------|----------------------------------------|
G--------|--7-----|--------|----------------------------------------|
D--7-----|--7-----|--7-----|----------------------------------------|
A--7-----|--9--X8-|--7-----|----------------------------------------|
E--5--X8-|--------|--5--X8-|----------------------------------------|
Chorus
Middle Part- Strum Slowly
e--------|--------|--------|--------|--------------------------------|
B--------|--------|--------|--------|--------------------------------|
G--------|--7-----|--------|--4-----|--------------------------------|
D--7-----|--7-----|--7-----|--4-----|--------------------------------|
A--7-----|--9--X4-|--7-----|--2--X4-|--------------------------------|
E--5--X4-|--------|--5--X4-|--------|--------------------------------|
Intro
Chorus
MIddle Part
Then:
e--5-4-2-0-5-4-0-2--------------------------------------------------|
B------------------5------------------------------------------------|
G-------------------------------------------------------------------|
D-------------------------------------------------------------------|
A-------------------------------------------------------------------|
E-------------------------------------------------------------------|




Ваше мнение



Капча