-------------------------------------------------------------------------------
My Mistake - MxPx
-------------------------------------------------------------------------------
MxPx: MY MISTAKE
ALBULM: TEN YEARS AND RUNNING
STANDARD TUNNING EADGBe
TABBED BY:ZERO IS GREAT MAN
= SLIDE DOWN
P.S= PICK SCRAPE
P.M= PALM MUTED
X= MUTED NOTE
INTRO
E|------------10-|
A|-9-9-9-10-9-X--|
D|-X-X-X-X--X-12-|(x4)
G|-7-7-7-12-7----|
B|---------------|
e|---------------|
VERSE
E|----------5-5-5-5--7-7-7-7--3-3-3-3--6-6-6-6--5-5-5-5----------|
A|-5-5-5-5--7-7-7-7--9-9-9-9--5-5-5-5--8-8-8-8--7-7-7-7--5-5-5-5-|
D|-7-7-7-7--7-7-7-7--9-9-9-9--5-5-5-5--8-8-8-8--7-7-7-7--X-X-X-X-|
G|-7-7-7-7-----------------------------------------------7-7-7-7-|
B|---------------------------------------------------------------|
e|---------------------------------------------------------------|
VERSE(THE SECOND TIME) P.S
E|----------5-5-5-5--7-7-7-7--3-3-3-3--6-6-6-6--5-5-5-5--155-|
A|-5-5-5-5--7-7-7-7--9-9-9-9--5-5-5-5--8-8-8-8--7-7-7-7-------|
D|-7-7-7-7--7-7-7-7--9-9-9-9--5-5-5-5--8-8-8-8--7-7-7-7-------|
G|-7-7-7-7----------------------------------------------------|
B|------------------------------------------------------------|
e|------------------------------------------------------------|
CHORUS
E|---------3-------------------3-3-3-3--5-5-|
A|-5-5-5-5-5--5-7-7-9--9--7-5--5-5-5-5--7-7-|
D|-X-X-X-X-5--X-X-X-X--X--X-X--5-5-5-5--7-7-|INTRO x2
G|-7-7-7-7----7-9-9-11-11-9-7---------------|
B|------------------------------------------|
e|------------------------------------------|
CHORUS(THE SECOND TIME)
E|----------3-3-3-3--5-5-5-5--9--9--9--9---3-3-3-3--5-5-5-5-|
A|-5-5-5-5--5-5-5-5--7-7-7-7--11-11-11-11--5-5-5-5--7-7-7-7-|
D|-7-7-7-7--5-5-5-5--7-7-7-7--11-11-11-11--5-5-5-5--7-7-7-7-|INTRO x4
G|-7-7-7-7--------------------------------------------------|
B|----------------------------------------------------------|
e|----------------------------------------------------------|
BRIDGE P.S
E|--------5---5--3---3---5---5-155|
A|-5---5---------------------------|
D|----------7------5---5---7-------|
G|---7-----------------------------|
B|---------------------------------|
e|---------------------------------|
OUTRO
E|---------|
A|-5-5-5-5-|
D|-7-7-7-7-|
G|-7-7-7-7-|
B|---------|
e|---------|
===========================================================================




Ваше мнение



Капча