================================================================
My Life Story - MxPx
================================================================
Tabbed by: punkROCKSerfer
email: [email protected]
Tuning: normal
~= let ring
X=pick scratch
*=palm mute
/ =slide
Intro - Guitar 1
e|-------------------------------------------------|
B|-------------------------------------------------|
G|----------------------------------------7-7------|
D|-9-11-11---9-11-11---9-11-11---9-11-11--7-7------| X4
A|-0-0--0----0-0--0----0-0--0----0-0--0---5-5------|
E|-------------------------------------------------|
Intro - Guitar 2 (joins in with guitar 1 after second time)
e|-------------------------------------------------|
B|-------------------------------------------------|
G|---------------7-7-------------------------------|
D|-777777777777--7-7-------------------------------| X2
A|-777777777777--5-5-------------------------------|
E|-555555555555------------------------------------|
Verse 1 (I was on my way....)
e|-----------------------------------------------|
B|-----------------------------------------------|
G|----7-7----7-7-------------------777777777-----|
D|-7~-7-7-7~-7-7---777-666-444-222-777777777-2-2-| X2
A|-7~-5-5-7~-5-5---777-666-444-222-555555555-2-2-|
E|-5~-----5~-------555-444-222-000-----------0-0-|
** ** ** **
Chorus (Don't hate me....)
e|--------------------------------------|
B|--------------------------------------|
G|------------------------------7-7-----|
D|-7777777777777777777777777777-7-7-2-2-| X2
A|-7777777777777777777777777777-5-5-2-2-|
E|-5555555555555555555555555555-----0-0-|
Verse 2 (I know it's much too late....)
e|-----------------------------------------------|
B|-----------------------------------------------|
G|----7-7----7-7-------------------777777777-----|
D|-7~-7-7-7~-7-7---777-666-444-222-777777777-2-2-| X2
A|-7~-5-5-7~-5-5---777-666-444-222-555555555-2-2-|
E|-5~-----5~-------555-444-222-000-----------0-0-|
** ** ** **
Chorus (Don't hate me....)
e|--------------------------------------|
B|--------------------------------------|
G|------------------------------7-7-----|
D|-7777777777777777777777777777-7-7-2-2-| X2
A|-7777777777777777777777777777-5-5-2-2-|
E|-5555555555555555555555555555-----0-0-|
Post-Chorus (My life story!!!)
e|--------------|
B|--------------|
G|------7-7-----|
D|-7777-7-7-2-2-| X2
A|-7777-5-5-2-2-|
E|-5555-----0-0-|
Bridge
e|-------------------|
B|-------------------|
G|-----7-X-----------|
D|-7-X-7-X-2-X-72/7-| X4
A|-7-X-5-X-2-X-72/7-|
E|-5-X-----0-X-5/5-|
Solo (You changed your mind....)
e|---------------------------------------------|
B|---------------------------------------------|
G|------------6666666666-----------------------|
D|-7777777777-6666666666-4444444444-2222222222-| X1
A|-7777777777-4444444444-4444444444-2222222222-|
E|-5555555555------------2222222222-0000000000-|
********** ********** ********** **********
(You changed your mind....)
e|-------------------------------------------------|
B|-------------------------------------------------|
G|------------6~--------------------------7-7------|
D|-7~---------6~---------4~---------2-2---7-7--2-2-| X1
A|-7~---------4~---------4~---------2-2---5-5--2-2-|
E|-5~--------------------2~---------0-0--------0-0-|
Chorus (Don't hate me....)
e|--------------------------------------|
B|--------------------------------------|
G|------------------------------7-7-----|
D|-7777777777777777777777777777-7-7-2-2-| X2
A|-7777777777777777777777777777-5-5-2-2-|
E|-5555555555555555555555555555-----0-0-|
Post-Chorus (My life story!!!)
e|--------------|
B|--------------|
G|------7-7-----|
D|-7777-7-7-2-2-| X4
A|-7777-5-5-2-2-|
E|-5555-----0-0-|
Outro - Guitar 1
e|-------------------------------------------------|
B|-------------------------------------------------|
G|----------------------------------------7-7------|
D|-9-11-11---9-11-11---9-11-11---9-11-11--7-7------| X2
A|-0-0--0----0-0--0----0-0--0----0-0--0---5-5------|
E|-------------------------------------------------|
Outro - Guitar 2
e|-------------------------------------------------|
B|-------------------------------------------------|
G|---------------7-7-------------------------------|
D|-777777777777--7-7-------------------------------| X2
A|-777777777777--5-5-------------------------------|
E|-555555555555------------------------------------|
End on this:e|----| That's it. It's a great song,
B|----| and the tab is 100% correct.
G|----| If you have any questions,
D|-7~-| email me and I'll answer them.
A|-7~-|
E|-5~-|




Ваше мнение



Капча