Artist: MxPx
Song: Move to Bremerton
Album: Life in General
Tabbed by: Andy Loven ([email protected])

*Listen to the CD for exact strumming*

Intro:
Palm muted...
e-------------------------------------------------------------|
B-------------------------------------------------------------|
G-------------------------------------------------------------|
D-------7-----7---7--------12---------11--------9-----9---9---|
A---5-5---5-5---5----10-10----10--9-9----9--7-7---7-7---7-----|
E-------------------------------------------------------------|

Palm muted...
e---------------------------|
B---------------------------|
G---------------------------|
D---------12---------11/7---|
A---10-10----10--9-9--------|
E---------------------------|
*The intro doesn't sound perfect but I think this is the best tab of it.
You won't be able to tell the difference unless you're playing along to
the CD.

D G
When I meet a special girl
B A
She always lives somewhere else in the world
D G
I don't want to call her on the phone
B A
I wanna talk to her when I'm at home

G
Move to Bremerton - we'll hang out
D
Move to Bremerton - we'll go all out
B A
Move to Bremerton - will you be mine?
(Move to Bremerton til' the end of time)

D G
I'll change the street signs you drive down
B A
So you end up in my town
D G
I'll re-draw the maps all one by one
B A
So they all lead to Bremerton

G B
Drop out of school and run away
A# A
Quit your job, you got a place to stay
G B
Pack your bags and hitch a ride
A# A
Bremerton's a good place to reside

(Play the intro riff and let the D ring on this part. If you don't know
what I'm talking about listen to the CD. It's easy.)

If you own a brain and use it too
You gotta know I'd have a crush on you
I'm a sucker for a level headed girl with a pretty smile
She gotz to have ideas, yeah, and she gotz to have style




Ваше мнение



Капча