Mxpx - Mountain Dew Song

Tabbed by: Dylan Devoe
Email: [email protected]

Tuning: E,A,D,G,B,e

Intro:
e|-----------------------------|
B|-----------------------------|
G|-7-7-7-7-7-7-7-7-------------|
D|-7-7-7-7-7-7-7-7-5-9-7-5-7-9-| x4
A|-5-5-5-5-5-5-5-5-5-9-7-5-7-9-|
E|-----------------3-7-5-3-5-7-|

Verse:
e|-------------------------------------------------------------|
B|-------------------------------------------------------------|
G|-7-7-7-7-7-7-7-7---------------------------------------------|
D|-7-7-7-7-7-7-7-7-5-5-5-5-5-5-5-5-9-9-9-9-9-9-9-9-7-7-7-7-5-7-|
A|-5-5-5-5-5-5-5-5-5-5-5-5-5-5-5-5-9-9-9-9-9-9-9-9-7-7-7-7-5-7-|
E|-----------------3-3-3-3-3-3-3-3-7-7-7-7-7-7-7-7-5-5-5-5-3-5-|

e|-------------------------------------------------------|
B|-------------------------------------------------------|
G|-7-7-7-7-7-7-7-7---------------------------------------|
D|-7-7-7-7-7-7-7-7-5-5-5-5-5-5-5-5-9-9-9-9-9-9-9-9-7-5-7-|
A|-5-5-5-5-5-5-5-5-5-5-5-5-5-5-5-5-9-9-9-9-9-9-9-9-7-5-7-|
E|-----------------3-3-3-3-3-3-3-3-7-7-7-7-7-7-7-7-5-3-5-|

Chorus:
e|-----------------------------------------------------------------|
B|-----------------------------------------------------------------|
G|-7-7-7-7-7-7-7-7-7-7-7-7-7-7-7-7---------------------------------|
D|-7-7-7-7-7-7-7-7-7-7-7-7-7-7-7-7-5-5-5-5-5-5-5-5-7-7-7-7-7-7-7-7-|
A|-5-5-5-5-5-5-5-5-5-5-5-5-5-5-5-5-5-5-5-5-5-5-5-5-7-7-7-7-7-7-7-7-|
E|---------------------------------3-3-3-3-3-3-3-3-5-5-5-5-5-5-5-5-|

e|---------------------------------------------------|
B|---------------------------------------------------|
G|-7-7-7-7-7-7-7-7-7-7-7-7-7-7-7-7-------------------|
D|-7-7-7-7-7-7-7-7-7-7-7-7-7-7-7-7-5-5-5-5-5-5-5-5-7-|
A|-5-5-5-5-5-5-5-5-5-5-5-5-5-5-5-5-5-5-5-5-5-5-5-5-7-|
E|---------------------------------3-3-3-3-3-3-3-3-5-|

Fill:
e|-----------------------------|
B|-----------------------------|
G|-7-7-7-7-7-7-7-7-------------|
D|-7-7-7-7-7-7-7-7-5-9-7-5-7-9-| x2
A|-5-5-5-5-5-5-5-5-5-9-7-5-7-9-|
E|-----------------3-7-5-3-5-7-|

Chorus:
e|-----------------------------------------------------------------|
B|-----------------------------------------------------------------|
G|-7-7-7-7-7-7-7-7-7-7-7-7-7-7-7-7---------------------------------|
D|-7-7-7-7-7-7-7-7-7-7-7-7-7-7-7-7-5-5-5-5-5-5-5-5-7-7-7-7-7-7-7-7-|
A|-5-5-5-5-5-5-5-5-5-5-5-5-5-5-5-5-5-5-5-5-5-5-5-5-7-7-7-7-7-7-7-7-|
E|---------------------------------3-3-3-3-3-3-3-3-5-5-5-5-5-5-5-5-|

e|-------------------------------------|
B|-------------------------------------|
G|-7-7-7-7-7-7-7-7-7-7-7-7-7-7-7-7-----|
D|-7-7-7-7-7-7-7-7-7-7-7-7-7-7-7-7-5-7-|
A|-5-5-5-5-5-5-5-5-5-5-5-5-5-5-5-5-5-7-|
E|---------------------------------3-5-|

Lyrics:

[Verse]
Where Do You Wanna Go?
What Do You Wanna Do?
What Do You Wanna Drink?
Mountain Dew Yeah
I Think It's Getting Late
And I Can't Stand Up Straight
I'm So Thirsty I Could Use A Different Taste Tonight

[Chorus]
Mountain Dew In My Head And On My Mind
Mountain Dew In My Head And Feeling Fine
Mountain Dew In My Head And On My Mind
Mountain Dew In My Head...

[Chorus]
Mountain Dew In My Head And On My Mind
Mountain Dew In My Head And Feeling Fine
Mountain Dew In My Head And On My Mind
Mountain Dew In My Head And Feeling Fine




Ваше мнение



Капча