Band- Mxpx
Song- More Everything
Album- Before Everything & After
Tabber- canucksrule
This is my first tab ever, so it may not be correct in all places,
but I think it is fairly good. Please rate.
~=Hold
*=Palm Mute
Intro:
e-|--------------------
B-|--------------------
G-|--------------------
D-|-7-77---------------
A-|-5-55-7-77-9-99-7-77
E-|------5-55-7-77-5-55
Riff A:
Guitar 1:
e-|----------------------------
B-|-2--2-2-3-5-3-0--2-2-3-5-3-2
G-|---------------------------- x3
D-|----------------------------
A-|----------------------------
E-|----------------------------
Guitar 2:
e-|--------------
B-|--------------
G-|-7------------ x 3
D-|-7-7-7-9-9-7-7
A-|-5-7-7-9-9-7-7
E-|---5-5-7-7-5-5
End Riff A
Guitar 1:
e-|---------------------------------
B-|-2-2-3-5-3-0--2-2-3-5-3~~~~~~~~~~
G-|---------------------------------
D-|---------------------------------
A-|---------------------------------
E-|---------------------------------
Guitar 2:
e-|--------------
B-|--------------
G-|-7------------
D-|-7-7-7-9-9-7-7
A-|-5-7-7-9-9-7-7
E-|---5-5-7-7-5-5

Verse: (Taking off, headin' out of this town)
e-|----------------------
B-|----------------------
G-|-7~~~~~-7-------------
D-|-7~~~~~-7-7-7-9-9-7-7- x2
A-|-5~~~~~-5-7-7-9-9-7-7-
E-|----------5-5-7-7-5-5-

Pre-Chorus: (We had our first fight late last night)
e-|------------------------------------------
B-|------------------------------------------
G-|----------------------------------77777777
D-|-7777777799999999-----------------77777777
A-|-55555555777777779999999977777777-55555555
E-|-----------------7777777755555555---------
********************************

Chorus: (More laughter, more tears...)
e-|----------------------------------
B-|----------------------------------
G-|----------------------777777999999
D-|-7777774444447-8-9-11-777777999999
A-|-7777774444447-8-9-11-555555777777
E-|-5555552222225-6-7-9--------------
Riff A x2
Verse x2 (Takin' off, maybe I'll bum a ride..)
Pre-Chorus x1 (The chance I had just passed me by...)
Chorus: (More laughter, more tears...)
e-|----------------------------------------------
B-|----------------------------------------------
G-|----------------------777777999999------------
D-|-7777774444447-8-9-11-777777999999777777xxxxxx
A-|-7777774444447-8-9-11-555555777777777777xxxxxx
E-|-5555552222225-6-7-9--------------555555xxxxxx
e-|---------------------------------------
B-|---------------------------------------
G-|----------------------777777999999-----
D-|-7777774444447-8-9-11-7777779999997~~~~
A-|-7777774444447-8-9-11-5555557777777~~~~
E-|-5555552222225-6-7-9--------------5~~~~

Bridge:
e-|---------------------------------
B-|---------------------------------
G-|---------------------------------
D-|---------------------------------
A-|-77777777777777777777777777777777
E-|-55555555555555555555555555555555
********************************
(More everything in every way...)
e-|---------------------------------
B-|---------------------------------
G-|---------------------------------
D-|-----------------7777777799999999
A-|-77777777999999995555555577777777
E-|-5555555577777777----------------
********************************
e-|------------------------------------------------
B-|------------------------------------------------
G-|------------------------------------------------
D-|-11-11-11-11-11-11-11-11-13-13-13-13-13-13-13-13
A-|-9--9--9--9--9--9--9--9--11-11-11-11-11-11-11-11
E-|------------------------------------------------
***********************************************
e-|------------------------------------------
B-|------------------------------------------
G-|-----7-9----------------------7-9-11-7~-9~
D-|-7-9-7-9-7777777799999999-7-9-7-9-11-7~-9~
A-|-7-9-5-7-7777777799999999-7-9-5-7-9--5~-7~
E-|-5-7-----5555555577777777-5-7-------------
Riff A x4
Chorus: (More laughter, more tears...)
e-|----------------------------------------------
B-|----------------------------------------------
G-|----------------------777777999999------------
D-|-7777774444447-8-9-11-777777999999777777xxxxxx
A-|-7777774444447-8-9-11-555555777777777777xxxxxx
E-|-5555552222225-6-7-9--------------555555xxxxxx
e-|-------------------------------------------------------
B-|-------------------------------------------------------
G-|----------------------777777999999---------777777999999
D-|-7777774444447-8-9-11-7777779999997-8-9-11-777777999999
A-|-7777774444447-8-9-11-5555557777777-8-9-11-555555777777
E-|-5555552222225-6-7-9--------------5-6-7-9--------------
Riff A x3
Outro:
Guitar 1:
e-|-------------------------------------------
B-|-2-2-3-5-3-2--2-2-3-5-3-2--2-2-3-5-3-0~~~~~
G-|-------------------------------------------
D-|-------------------------------------------
A-|-------------------------------------------
E-|-------------------------------------------
Guitar 2:
e-|--------------
B-|--------------
G-|-7------------ x 3
D-|-7-7-7-9-9-7-7
A-|-5-7-7-9-9-7-7
E-|---5-5-7-7-5-5
End Chord:
G-|-7
D-|-7
A-|-5




Ваше мнение



Капча