SONG: MISPLACED MEMORIES
ARTIST:MxPx
ALBUM: THE EVER PASSING MOMENT
TABBED BY: Dave Parisi
intro
G|-----------------------
D|------------------0123- x2
A|22----------22---------
E|---33-00-33----33------
verse
G|------------------------------------
D|---------------------------------------0000----- x2
A|44444444-------------22222222----------
E|-------------22222222-----------------0000

G|-----------------------------------
D|-----------------------22222222---------
A|22222222---------------------------
E|--------------33333333----------22222222
chorus (play twice in the 2nd round)
G|------------------------------------------
D|------------------22222222----------------0--
A|22222222-------------------------------------4
E|---------33333333----------223-223-2-0----
repeat all of the above again
bridge
G|-------------------
D|---------0000------ x4
A|--------------0000-
E|33333333-----------
bass riff
G|----------------------
D|--0232020-------------
A|2---------45-45-42-45- x3
E|----------------------

G|------------------
D|--0232020-----0---
A|2---------4-0---0-
E|------------------
repeat chorus twice




Ваше мнение



Капча