Song: Middlename
Band: MxPx
Album: Life In General
Tabbed by: Fabricio Oliveira ([email protected])
Member of the Bass Tab Archive Tabbing Army ~ http://www.basstabarchive.com
Intro: Guitar - Emotioooooon, That's My Middlename...
0:10 - Part A:
G------------------------------------------------------------------------------
D------------------------------------------------------------------------------
A--------------------2--2-2--2-2-2--2--2-2--2-2-2---5-5--5-5-5--5--5-5--5-5-5--
E--2-2-2-2-2-2-2-2-------------------------------------------------------------
0:16 - Part B: #=Play 14x
G--------------------------
D--------------#-----------
A------#---4--4--------#---
E--5--5------------3--3----
0:22 - Part A
0:28 - Part B
0:34 - Part C
G---------------------------
D---------------------------
A-------------------2-5-7---
E--2-2-2-2-2-2-2-2----------
0:41 - Part D: 4x
G---------------------------
D---------------------------
A-----4---------------------
E--5-----3--3-3-3-----------
0:48 - Part E: 2x
G----------------------------------------------------------------------------------------------
D----------------------------------------------------------------------------------------------
A-------------------------7-7--7-7-7--7-7--7-7-7------------------------5-5--5-5-5--7-7--7-7-7-
E--5-5--5-5-5--5-5--5-5-5------------------------3-3--3-3-3--3-3--3-3-3------------------------
1:04 - Part B

1:09 - Part A
1:15 - Part B
1:21 - Part A
1:26 - Part B
1:32 - Part C
1:39 - Part D: 4x
1:47 - Part E: 2x
2:02 - Part F
G--------------------------------------------------------------------------------
D-----7-7h9-7-6h7p6-------7h9-7-6h7p6----5-5h7-5-4h5p4---------------------------
A--0-----------------------------------------------------5-5--5-5h7-5-4h5--------
E--------------------4-----------------3-----------------------------------------
G-------------------------------7h9p6--------------------------------------------
D-------7h9-7-6h7p6-------6h7h9--------7p6------5--5h7-5-4h5p4-------------------
A--0-0---------------------------------------------------------------------------
E--------------------4-4--------------------3-3----------------------------------
2:19 - Part A
2:24 - Part B
2:30 - Part C
2:38 - Part D: 4x
2:46 - Part G
G----------------------------------------------------------------------------------------
D----------------------------------------------------------------------------------------
A-------------------2-2--2-2-2--2-2-2--2-2-2--2---5-5--5-5-5--5--7-7--7-7-7--7-----------
E--2-2-2-2-2-2-2-2---------------------------------------------------------------5---5X--
That's It!




Ваше мнение



Капча