Song: Make Up Your Mind
Artist: MxPx
Album: The Broken Bones LP
Tabbed By: Paul Assaad ([email protected])
This song rocks, and it’s really easy to play.
Intro (Pickup) #1
G|----------------------------------------
D|----------------------------------------
A|--2>------------------------------------
E|----------------------------------------
Verse #2
G|----------------------------------------
D|--2>------2>------2>------2>------------
A|------0>------2>------0>------2>--------
E|----------------------------------------
Chorus #3
G|----------------------------------------
D|------2>------2>----------2>------------
A|--4>------4>------2>--4>------2>--0>----
E|----------------------------------------
Bridge #4
G|----------------------------------------
D|------2>------2-------------------------
A|--0>------2>--------2--0----------------
E|-----------------4----------------------
Finale #5
G|----------------------------------------
D|--2-----------2-------------------------
A|--------2--0--------2-------------------
E|-----4-----------4-----0----------------
#Order: 1,2,3,1,2,3,4(2x),3(2x along with a simple extension),5
(Listen to the song if you need help playing the extended chorus part at the
end. I don't think anyone will have trouble figuring it out, which is why i
didn't include it.)




Ваше мнение



Капча