Song: Lifetime Enlightenment
Band: Mxpx
Album: Let it Happen
tabbed by: Eeric J

Play notes more than once

Intro:
G:---------------------------------------------------------------
D:---------------------------------------------------------------
A:---4--3--1--------4--3--1---------------------------------
E:------------1--4-----------2--1--4-------------------------

Verse:
G:---------------------------------------------------------------
D:---------------------------------------------------------------
A:---1--4------------------------------------------------------
E:---------2--1------------------------------------------------

Chorus:
G:---------------------------------------------------------------
D:---------------------------------------------------------------
A:---1--4-3-4-3-4-3--1------------------------------------
E:---------------------------------------------------------------

Interlude:
G:---------------------------------------------------------------
D:---------------------------------------------------------------
A:---------------------------------------------------------------
E:---1--4--6-----1--4--7--6-----1--4--6-----4--1-------4-




Ваше мнение



Капча