LET IT HAPPEN - MxPx
Transcribed By: Mike Carlile
Lead Part:
e------------------------------I
b------------------------------I
g------------------------------I
d---------9-11-9-9-8-8-h9-I
a-----9-9---------------------I
e-7-7-------------------------I
B
i want someone to love
F#
a girl that when i think of
E C# F#
will put a smile on my face
B
i want to hold her hand
F#
want her to understand
E C# F#
there's got to be a better place
E
than this world cause this
C#
is the best time of our lives
F# E
Should I be thinking about that now
C#
She turns world around
F#
I let it happen everytime
(play lead part for second verse)
i want a lot of things
somethings always seem to bring
all the pain back in my mind
which way to go
answers to questions I don't know
better things that we can find
E
than this world
C#
this is the best time of our lives
F# E
Should I be thinking about that now
C#
She turns world around
F#
I let it happen everytime
Bridge:
e-------------------I
b-------------------I
g----------9-8------I
d----------------9--I
a-------------------I
e-9-11-7------------I
============================================================
LET IT HAPPEN - MxPx
By: Jeremy Reece ([email protected])
INTRO:
Guitar 1:
e|---------------------------------------------------------------------------|
B|---------------------------------------------------------------------------|
G|-------------------------4-46434-46434-46434-4643--------------------------|
D|--------------------------4-----4-----4-----4------------------------------|
A|---------------------------------------------------------------------------|
E|---------------------------------------------------------------------------|
Guitar 2:
e|---------------------------------------------------------------------------|
B|---------------------------------------------------------------------------|
G|-4-----------------6-----4-----------------6-----4------------------------|
D|-4-----4-----2-----6--4--4-----4-----2-----6--4--4->First Chord of Verse 1-|
A|-2-----4-----2-----4--4--2-----4-----2-----4--4--2-/-----------------------|
E|-------2-----0--------2--------2-----0--------2----------------------------|
VERSE 1: /--Chorus------
e|---------------------------------------------------------------------------|
B|---------------------------------------------------------------------------|
G|-4-----11----9-----6--11-------11----9-----6--11-9--------11-9--------11---|
D|-4-----11----9-----6--11-9-----11----9-----6--11-9-----11-11-9-----11-11---|
A|-2-----9-----7-----4--9--9-----9-----7-----4--9--7-----11-9--7-----11-9----|
E|-------------------------7-----------------------------9-----------9-------|
VERSE 2:
Guitar 1:
e|---------------------------------------------------------------------------|
B|---------------------------------------------------------------------------|
G|-4-46434-46434-46434-46434-46434-46434-46434-46434-------------------------|
D|--4-----4-----4-----4-----4-----4-----4-----4------------------------------|
A|---------------------------------------------------------------------------|
E|---------------------------------------------------------------------------|
Guitar 2: /----Chorus------
e|---------------------------------------------------------------------------|
B|---------------------------------------------------------------------------|
G|-4-----------------6-----4-----------------6-----9--------11-9--------11---|
D|-4-----4-----2-----6--4--4-----4-----2-----6--4--9-----11-11-9-----11-11---|
A|-2-----4-----2-----4--4--2-----4-----2-----4--4--7-----11-9--7-----11-9----|
E|-------2-----0--------2--------2-----0--------2--------9-----------9-------|
INTERLUDE:
It's too late to put in the timing, do it on your own :)
Guitar 1:
e|---------------------------------------------------------------------------|
B|---------------------------------------------------------------------------|
G|-4-46434-46434-46434-46434-------------------------------------------------|
D|--4-----4-----4-----4------------------------------------------------------|
A|---------------------------------------------------------------------------|
E|---------------------------------------------------------------------------|
Guitar 2: /Figure out the timing -Go-On---->
e|---------------------------------------------------------------------------|
B|---------------------------------------------------------------------------|
G|-4----------------6-----4----------------------------------------------4---|
D|-4----4-----2-----6--4--4--(bass...)---1-2-4------4-2-1----------1-2-4-----|
A|-2----4-----2-----4--4--2--------------------2----------2--242-------------|
E|------2-----0--------2-----------------------------------------------------|
e|---------------------------------------------------------------------------|
B|---------------------------------------------------------------------------|
G|-4-3-----------------------4-3---------------------------------------------|
D|-----4----2-1------------------4---(Slide In)------------------------------|
A|--------------1-2---242----------------------------------------------------|
E|---------------------------------------------------------------------------|
PRE-VERSE:
Guitar 1:
e|---------------------------------------------------------------------------|
B|---------------------------------------------------------------------------|
G|-4-46434-46434-46434-4643--------------------------------------------------|
D|--4-----4-----4-----4------------------------------------------------------|
A|---------------------------------------------------------------------------|
E|---------------------------------------------------------------------------|
Guitar 2:
e|---------------------------------------------------------------------------|
B|---------------------------------------------------------------------------|
G|-4-----------------6-------------------------------------------------------|
D|-4-----4-----2-----6--4--(into Verse)--------------------------------------|
A|-2-----4-----2-----4--4----------------------------------------------------|
E|-------2-----0--------2----------------------------------------------------|
VERSE: /--Chorus-----------------
e|---------------------------------------------------------------------------|
B|---------------------------------------------------------------------------|
G|-4-----11----9-----6--11-------11----9-----6--11-9--------11-9--------11---|
D|-4-----11----9-----6--11-9-----11----9-----6--11-9-----11-11-9-----11-11---|
A|-2-----9-----7-----4--9--9-----9-----7-----4--9--7-----11-9--7-----11-9----|
E|-------------------------7-----------------------------9-----------9-------|
OUTRO:
Guitar 1:
e|---------------------------------------------------------------------------|
B|---------------------------------------------------------------------------|
G|-4-46434-46434-46434-46434-46434-46434-46434-46434-------------------------|
D|--4-----4-----4-----4-----4-----4-----4-----4------------------------------|
A|---------------------------------------------------------------------------|
E|---------------------------------------------------------------------------|
Guitar 2:
e|---------------------------------------------------------------------------|
B|---------------------------------------------------------------------------|
G|-4-----4-----4-----4-----4-----4-----4-----4-----4-------------------------|
D|-4-----4-----4-----4-----4-----4-----4-----4-----4-------------------------|
A|-2-----2-----2-----2-----2-----2-----2-----2-----2-------------------------|
E|---------------------------------------------------------------------------|
My most complex tab yet. And the longest :)
==========
LET IT HAPPEN - MxPx
Tabbed By Dave [email protected] AIM: xxswatgovxx
Intro: Let Chords Ring
G-5-------------|
D-5--5--3--7--5-|
A-3--5--3--7--5-|
E----3--1--5--3-|
Lead Part:
D---------9-11-11-8-8-h9-I
A------9-----------------I
E-7-7--------------------I
B
I want someone to love
F#
a girl that when i think of
E C# F#
will put a smile on my face
B
i want to hold her hand
F#
want her to understand
E C# F#
there's got to be a better place
E
than this world cause this
C#
is the best time of our lives
F# E
Should I be thinking about that now
C#
She turns world around
F#
I let it happen everytime
Lead Part: Play Lead For Second Verse
D---------9-11-11-8-8-h9-I
A------9-----------------I
E-7-7--------------------I
I want a lot of things
somethings always seem to bring
all the pain back in my mind
which way to go
answers to questions I don't know
better things that we can find
E
than this world
C#
this is the best time of our lives
F# E
Should I be thinking about that now
C#
She turns world around
F#
I let it happen everytime
Lead Part: x4
D---------9-11-11-8-8-h9-I
A------9-----------------I
E-7-7--------------------I
Let Ring
G-5-|
D-5-|
A-3-|
~ - Let Ring
h - Hammer On
p - Pull Off
D|-----------------------------------9~--9-8-----------------9-8----|
A|-6-7-9------9-7-6-----------6-7-9----------9~--7-6-------------9~-|
E|-------7~---------7~-7h9p7------------------------7~-7h9p7--------|
Pick Slide Downward
G--|
D--|
Lead Part: x4
D--------9-11-11-8-8-h9-I
A------9----------------I
E-7-7-------------------I
B
I want someone to love
F#
a girl that when i think of
E C# F#
will put a smile on my face
B
i want to hold her hand
F#
want her to understand
E C# F#
there's got to be a better place
E
than this world cause this
C#
is the best time of our lives
F# E
Should I be thinking about that now
C#
She turns world around
F#
I let it happen everytime
Lead Part: x8
D---------9-11-11-8-8-h9-I
A------9-----------------I
E-7-7--------------------|
G-5-|
D-5-| Let Ring
A-3-|
-------------------------------------------------------------------------------
LET IT HAPPEN (mini solo) - Mxpx
By:Ryan Mortier
e|-------------------------------------------------------------|
B|-------------------------------------------------------------|
G|-------------------------------------------------------------|
D|-------------------------------------------9--9-8-4--4-------|
A|-6-7-9-2--9-7-6-2-2h4p2--6-7-9-----------------7-6-2---------|
E|-------------------------------------------------------------|
e|-------------------------------------------------------------|
B|-------------------------------------------------------------|
G|-------------------------------------------------------------|
D|--------------------9--9-8-4--(pick slide)-------------------|
A|-2h4p2--6-7-9------------------------------------------------|
E|-------------------------------------------------------------|
===================================================================
LET IT HAPPEN (Solo) - Mxpx
By:Josh Recker - [email protected]
~ - Let Ring
h - Hammer On
p - Pull Off
e|-------------------------------------------------------------------------|
B|-------------------------------------------------------------------------|
G|-------------------------------------------------------------------------|
D|-----------------------------------9~--9-8----------------------9-8------|
A|-6-7-9------9-7-6------------6-7-9---------9~--7-6------------------9~---|
E|-------7~---------7~-7h9p7-7-----------------------7-7~-7h9p7-7----------|
This is 100% Correct, Have fun with it, E-mail me with requests or whatever.




Ваше мнение



Капча