MXpX - (cover)KKK Took My Baby Away
Tabbed By: ryan dunn
EMail: [email protected]
MxPX-KKK Took My Baby Away (cover of ramones song)
this is a very is song
Intro:
e|-------------------------------------------------------------------
|-------------------------------------------------------------------
|-------------------------------------------------------------------
|-------------------------------------------------------------------
|-5-5-5-5-5----5-5-5-5-5----5-5-5-5-5----5-5-5-5-5------------------
E|-3-3-3-3-3----3-3-3-3-3----3-3-3-3-3----3-3-3-3-3------------------
Hey! Ho! Hey! Ho!
Verse #1:(sounds like alot of strumming but its right
dont count just play with the music)
(Play Twice)
e|-------------------------------------------------------------------
|-------------------------------------------------------------------
|-------------------------------------------------------------------
|-------------------------------------------------------------------
|-5--x21----------------------2-x21---------------------------------
E|-3---------------------------0-------------------------------------
She went away for the holiday Said she goin to LA
Verse #1:(cont.)
e|-------------------------------------------------------------------
|-------------------------------------------------------------------
|-------------------------------------------------------------------
|-5-x21-------------------7-x21-------------------------------------
|-3-----------------------5-----------------------------------------
E|-------------------------------------------------------------------
But she never got there Never got there, no,no,no,no!
Chorus:(twice)
e|-------------------------------------------------------------------
|-------------------------------------------------------------------
|-------------------------------------------------------------------
|--------------------------------------------5-x11--------------5-x4
|-5-x5-------------------------2-x6----------3------------------7---
E|-3----------------------------0------------------------------------
The KKK took my baby away Took her away They took her away Away from me
PreVerse:(same as intro)
Verse #2:(play this twice)
e|-------------------------------------------------------------------
|-------------------------------------------------------------------
|-------------------------------------------------------------------
|--------------------------5-x6-------------7-x6--------------------
|-5-x8---------------------3----------------5-----------------------
E|-3-----------------------------------------------------------------
Wonder where my baby went Took her from me Took her from me
e|-------------------------------------------------------------------
|-------------------------------------------------------------------
|-------------------------------------------------------------------
|-5----7-x4-alternate between these to and end on 7 when it says went
|-3-x4-5------------------------------------------5-----------------
E|-------------------------------------------------------------------
Really,Really,Really Need the president to find out where my baby went
e|-------------------------------------------------------------------
|-------------------------------------------------------------------
|-------------------------------------------------------------------
|-5----7-x4-alternate between these to and end on 7 when it says alive
|-3-x4-5------------------------------------------5-----------------
E|-------------------------------------------------------------------
Really,Really,Really need the FBI to find out if my babys alive
e|-------------------------------------------------------------------
|-------------------------------------------------------------------
|-------------------------------------------------------------------
|-------5-x6-7-x-6--------------------------------------7-(strum up and down)
|-5-x12-3----5-----(repeat until he starts freakin out)-5-----------
E|-3------------------------------------------------------------------
(he starts sayin wo-wowo and junk here) (freakin out part)
Play Verse #1 twice
Play chorus twice
Verse #3:
e|-------------------------------------------------------------------
|-------------------------------------------------------------------
|-------------------------------------------------------------------
|--------------------------5-x4---------------7-x4------------------
|-!!dont play here!!-------3------------------5---------------------
E|-------------------------------------------------------------------
The KKK took my baby away They took her away Away from ME!!
Verse: #3:(cont.)
e|-------------------------------------------------------------------
|-------------------------------------------------------------------
|-------------------------------------------------------------------
|--------------------------5-x4---------------7-x4------------------
|-!!dont play here!!-------3------------------5---------------------
E|-------------------------------------------------------------------
The KKK took my baby away They took her away Away from ME!!
Outro:
e|-------------------------------------------------------------------
|-------------------------------------------------------------------
|-------------------------------------------------------------------
|-5-(strum up and down)-5--(strum up and down)----------------------
|-3---------------------7----------------------5-x5--5-x5-----------
E|----------------------------------------------3-----x--------------
They took my baby They took my baby Away




Ваше мнение



Капча