e: Tue, 5 May 1998 21:08:02 -0600
From: Doug Reid
Subject: m/mxpx/today_is_in_my_way.crd

MxPx: Today is in my way
----------------------------------------------------------------------------

By: Chris Reid

Intro / Verse
e|-----------------------------------------------------------------------|
B|----------------------------------------------------------------------|
G|--------5-------------------2-----------------------------------------|
D|--------5---------5---------2----------3------------------------------|
A|--------3---------5---------0----------3------------------------------|
E|------------------3--------------------1------------------------------|

>

>

Chorus
e|---------------------------------------------------------------------|
B|--------------------------------------------------------------------|
G|--------5----------------------------------------------------------|
D|--------5----------3----------7-----------5-----------------------|
A|--------3----------3----------7-----------5-----------------------|
E|-------------------1----------5-----------3-----------------------|

>

Bass solo
G|--------------------------------------------------------------------------
D|-----------------------5555555555/ 7777777777---33333--222--00--------|
A|--3333333333--------------------------------------------------------------
E|--------------------------------------------------------------------------




Ваше мнение



Капча