Artist:MxPX
Song:It's Undeiable
Album:The Ever Passing Moment
Tabbed By:Dave Parisi
Its a cool song enjoy...
>=Play many timesIntro:
G:-----------------------------
D:-----------------------------
A:-----------------------------
E:-3>--------------------------
Verse1
G:-----------------------------
D:-----------------------------
A:----------------2222--3333------
E:-3333--5555------------------
Verse2
G:-----------------------------
D:-----------------------------
A:---------22--33--------------
E:-33--55----------------------
Pre Chorus
G:-------------------------------
D:-------------------------------
A:-----------------5-------------
E:-0-------5---------------3--2--
Chorus
G:-----------------------------
D:-----------------------------
A:-----0--22--3333--5555-------
E:-3>--------------------------
Outro 4x (then play after stars)
G:-------------------*-----------
D:-------------------*-----------
A:----0233---------5-*-----------
E:-3-------33333-----*--3(ring)--
Bridge 2x (then play after stars)
G:-------------------*-------------------
D:-------------------*-------------------
A:-----5-------------*-------------5555--
E:-5-------7---5---3-*-3333--5555--------
Playing Order:Intro 1x
Verse1 2x
Verse2 1x
Verse1 1x
PreChorus 1x
Chorus 2x
Outro 1x
Verse1 2x
Verse2 1x
Verse1 1x
Prechorus 2x
Chorus 2x
Outro (before stars only, & just play 2x)
Bridge 1x
Chorus 4x
Outro 1x




Ваше мнение



Капча