MxPx
Song: Important Enough To Mention
Album: Let It Happen
Tabbed by: BassD
>= play a couple of time
Listen to song for timing
Intro/Verse x2
G|------------------|
D|------------------|
A|-5>----3>---------|
E|----5>----3>------|

Part 2 x1
G|-------------------------------------------------------------|
D|--------4-4--4--------4-4--4---------------------------------|
A|-5-5--5--------7-7--7---------------4-4--4--------4-4--4-----|
E|-----------------------------5-5--5--------7-7--7------------|

G|---------------------------------------------------------------|
D|--------2-2--2--------2-2--2-----------------------------------|
A|-3-3--3--------5-5--5---------------2-2--2--------2-2--2-------|
E|-----------------------------3-3--3--------5-5--5--------3-*---| *=pause

Chorus
G|---------------------------|
D|---------------------------|
A|-2>----3>--------2>----3>--|
E|----1>----3-*-3>----1>-----| *=pause

(Intro/Verse x2)
(part 2 x1)

Chorus
G|---------------------------|
D|---------------------------|
A|-2>----3>--------2>----3>--|
E|----1>----3-*-3>----1>-----| *=pause

(Intro/Verse x2)
(End with part 2 x2)

End on A|--5ring--|

Questions or whatever??
Email= [email protected]

[email protected]======




Ваше мнение



Капча