Artist: MXPX
Song: I'm ok, You're ok

P.M.=Palm Mute
h= hammer

Intro:
e---------------------------------------------
B---------------------------------------------
G--5-5---5---5---5-5---3-3-3-3-3-3-3----------
D--5-5---5---5---5-5---3-3-3-3-3-3-3----------
A--3-3---3---3---3-3---1-0-1-0-1-0-1---------- x4
E---------------------------------------------
p.m. p.m.

Verse:
e--------------------------------------------------------------------
B--------------------------------------------------------------------
G------5---3-3--3-3-3-3--3-3--3-3-3-3--3-3--3-3-3-3--3-3-3-3--5-5-5--
D--3---5---3-3--3-3-3-3--3-3--3-3-3-3--3-3--3-3-3-3--3-3-3-3--5-5-5--
A--3---3---0h1--1-1-1-1--0h1--1-1-1-1--0h1--1-1-1-1--0h1-1-1--3-3-3--
E--1-----------------------------------------------------------------
--p.m.- --p.m.- --p.m.-

Chorus:
e---------------
B---------------
G-----5--3--5---
D--3--5--3--5---
A--3--3--1--3---
E--1------------

Verse

Chorus

Bridge:
e--------------
B--------------
G--7-6-5-3-5---
D--7-6-5-3-5---
A--5-4-3-1-3---
E--------------

Chorus


ok well thats all hope its easy enough for you it's an awesome song.....
I just saw them perform this in concert it was awesome....questions...comments...
email mike at [email protected]




Ваше мнение



Капча