Band: MxPx
Song: GSF
Tab: Guitar
Version: Live
Tuning: Standard (e,B,G,D,A,E)

This is exactly how MxPx Played 'GSF' on the 'At The Show' live album.

Intro
e |--------------------------------------------------|
B |--------------------------------------------------|
G |--------------------------------------------------|
D |--------------------------------------------4-4-5-| x2
A |-------5-2-5-7-7-7-10-7-5-3-3-3-3-3-3-5-5-5-------|
E |-3-3-3--------------------------------------------|

Verse (You didn't have to be...)
e |--------------------------------------------------|
B |--------------------------------------------------|
G |--------------------------------------------------|
D |-------------999999999999555555555555777777777777-| x2
A |-555555555555777777777777333333333333555555555555-|
E |-333333333333-------------------------------------|
Pm: ************************************************

Pre Chorus (Waste of time...)
e |--------------------------------------------------|
B |--------------------------------------------------|
G |--------------------------------------------------|
D |-------444444555555777777------444444555555777777-| x1
A |-555555222222333333555555555555222222333333555555-|
E |-333333------------------333333-------------------|

Chorus (Girls ain't no good...)
e |--------------------------------------------------|
B |--------------------------------------------------|
G |--------------------------------------------------|
D |-999999999999555555555555444444444444777777777777-| x2
A |-777777777777333333333333222222222222555555555555-|
E |--------------------------------------------------|

Intro
e |--------------------------------------------------|
B |--------------------------------------------------|
G |--------------------------------------------------|
D |--------------------------------------------4-4-5-| x2
A |-------5-2-5-7-7-7-10-7-5-3-3-3-3-3-3-5-5-5-------|
E |-3-3-3--------------------------------------------|

Verse 2 (Always happens to my friends...)
e |--------------------------------------------------|
B |--------------------------------------------------|
G |--------------------------------------------------|
D |-------------9-99--------5-5-5-------7-77---------| x2
A |-5-55--------7-77--------3-33--------5-55---------|
E |-3-33---------------------------------------------|

Pre Chorus (Do without...)
e |--------------------------------------------------|
B |--------------------------------------------------|
G |--------------------------------------------------|
D |-------444444555555777777------444444555555777777-| x1
A |-555555222222333333555555555555222222333333555555-|
E |-333333------------------333333-------------------|

Chorus (Girls ain't no good...)
e |--------------------------------------------------|
B |--------------------------------------------------|
G |--------------------------------------------------|
D |-999999999999555555555555444444444444777777777777-| x2
A |-777777777777333333333333222222222222555555555555-|
E |--------------------------------------------------|

Outro
e |--------------------------------------------------|
B |--------------------------------------------------|
G |--------------------------------------------------|
D |--------------------------------------------4-4-5-| x2
A |-------5-2-5-7-7-7-10-7-5-3-3-3-3-3-3-5-5-5-------|
E |-3-3-3--------------------------------------------|

End Note
e |---|
B |---|
G |---|
D |---|
A |---|
E |-3-|




Ваше мнение



Капча