MxPx
Song: Get With It!
Album: Slowly Going The way Of The Buffalo
Tabbed by: BassD :)
>=play a couple of time
Listen to song for timing
Intro/Verse
G|-----------------------------------------|
D|-----------------------------------------|
A|-----------------3>------------------3>--|
E|-3>------------------3>------------------|

G|-----------------------------------------------|
D|-----------------------------------------------|
A|----3>--*-----5>-3>--------3>-----5ring-3ring--| *=pause
E|-1>-------3>--------3>--1>----3>---------------|

G|----------------------------------------------|
D|----------------------------------------------|
A|----------------------------------------------|
E|-3-3-3-3--3-3-3-3--3-3-3-3--3-3-3-3--3-3-3-3--|

Verse
G|-----------------------------------------|
D|-----------------------------------------|
A|-----------------3>------------------3>--|
E|-3>------------------3>------------------|

G|-----------------------------------------------|
D|-----------------------------------------------|
A|----3>--*-----5>-3>--------3>-----5ring-3ring--| *=pause
E|-1>-------3>--------3>--1>----3>---------------|

End with
G|----------------------------------------------------|
D|----------------------------------------------------|
A|----------------3-3-3-2-2----------------3-3-3-2-2--|
E|-3-3-3-3--3-3-3-----------3-3-3-3--3-3-3------------|

G|-------------------------------------------------------------------|
D|-------------------------------------------------------------------|
A|----------------3-3-3-2-2----------------3-3-3-2-2-----------------|
E|-3-3-3-3--3-3-3-----------3-3-3-3--3-3-3------------3ring-------3--|

Questions everyone?
Email= [email protected]

[email protected]==============




Ваше мнение



Капча