=======================================================
Educated Guess - MxPx
=======================================================

Tabbed by: punkROCKSerfer
Email: [email protected]

~= let ring
*= palm mute
/ = slide
X= pick scratch

Intro
e|------------------------------|
B|------------------------------|
G|----------5~----------5-------|
D|-3~-7~-8~-5~-3~-7~-8~-5-8-7-5-|
A|-3~-7~-8~-3~-3~-7~-8~-3-8-7-5-|
E|-1~-5~-6~----1~-5~-6~---6-5-3-|

Verse 1 (Everything's gotten....)
e|------------------------------------|
B|------------------------------------|
G|---------------------------55555555-|
D|-3333333-77777777-88888888-55555555-| X2
A|-3333333-77777777-88888888-33333333-|
E|-1111111-55555555-66666666----------|

Verse 1 con't. (When you think back....)
e|------------------------------------|
B|------------------------------------|
G|---------------------------5~-------|
D|-3~------7~-------8~-------5~-------| X2
A|-3~------7~-------8~-------3~-------|
E|-1~------5~-------6~----------------|

Chorus (All the things....)
e|--------------------------------------------------|
B|--------------------------------------------------|
G|-------------------77777777-55555555---7-55555555-|
D|-88888888-33333333-77777777-55555555-8-7-55555555-|
A|-88888888-33333333-55555555-33333333-8-5-33333333-|
E|-66666666-11111111-------------------6------------|

Post-Chorus
e|----------------------|
B|----------------------|
G|--------------------5-|
D|-3-X-23-X-2333333-5-|
A|-3-X-23-X-2333333-3-|
E|-1-X-01-X-0111111---|

Verse 2 (When we were young....)
e|------------------------------------|
B|------------------------------------|
G|---------------------------55555555-|
D|-3333333-77777777-88888888-55555555-| X2
A|-3333333-77777777-88888888-33333333-|
E|-1111111-55555555-66666666----------|

Verse 2 con't. (Everything's gotten....)
e|-----------| |---------------|
B|-----------| |---------------|
G|-------555-| |----------5555-|
D|-3-7-8-555-| X2 |-3-7777-8-5555-| X1
A|-3-7-8-333-| |-3-7777-8-3333-|
E|-1-5-6-----| |-1-5555-6------|

Chorus (All the things....)
e|--------------------------------------------------|
B|--------------------------------------------------|
G|-------------------77777777-55555555---7-55555555-|
D|-88888888-33333333-77777777-55555555-8-7-55555555-| X2
A|-88888888-33333333-55555555-33333333-8-5-33333333-|
E|-66666666-11111111-------------------6------------|

Outro
e|------------------------|
B|------------------------|
G|--------------------5---|
D|-3-X-23-X-2333333-5-3-|
A|-3-X-23-X-2333333-3-3-|
E|-1-X-01-X-0111111---1-|




Ваше мнение



Капча