Song: Easier Said than Done
Artist: MxPx
Album: Move to Bremerton/ Let it Happen
Tabbed By: Paul Assaad ([email protected])
This one’s really fun to play. I wrote it mainly using the E and A strings,
‘cause I find it easiest to play that way, but try using the D string if you
think that’s easier.
Intro (1)
G|----------------------------------------
D|----------------------------------------
A|--4>-5>--5>-7>--4>-5>-7>-5>-------------
E|----------------------------------------
(2)
G|----------------------------------------
D|----------------------------------------
A|--2>--------2>--------------------------
E|-----3>-5>-----3>-5>--------------------
(3)
G|----------------------------------------
D|----------------------------------------
A|------5h4------4h5--5-7-----------------
E|--3h2------3h2--------------------------
(4)
G|----------------------------------------
D|----------------------------------------
A|--2>-5>--------2>-5>--------------------
E|--------3>-5>--------3>-5>--------------
(5)
G|--------------------------5h7-7-7-------
D|------------------5h7-7-7---------------
A|----7-7-7-5h7-7-7-----------------------
E|--7-------------------------------------
OK, here’s the order:
(1), (2), (3), (4), (5), (2), (3), (4), (3).




Ваше мнение



Капча