-------------------------------------------------------------------------------
Doing Time - MxPx
-------------------------------------------------------------------------------

Tabbed by:funkeymunkey
Email:[email protected]

Tuning:Standard

Right the timing isn’t shown on the intro but listen to the song and you’ll
get it, enjoy and rate!

Intro
e|----------------------------------------|
B|----------------------------------------|
G|-11-13-10-11-8-10-11-13-10-11-8-6-------|
D|-x--x--x--x--x-x--x--x--x--x--x-x-------|
A|-9--11-8--9--6-8--9--11-8--9--6-4-------|
E|----------------------------------------|
Verse
e|---------------------------------------|
B|---------------------------------------|
G|---------6666666-4444444-6666666-------|
D|-4444444-6666666-4444444-6666666-------|
A|-4444444-4444444-2222222-4444444-------|
E|-2222222-------------------------------|

e|---------------------------------------|
B|---------------------------------------|
G|---------6666666-4444444-6666666-------|
D|-4444444-6666666-4444444-6666666-------|
A|-4444444-4444444-2222222-4444444-------|
E|-2222222-------------------------------|
******* *******
Chorus
e|------------------------------------------|
B|------------------------------------------|
G|---------------------4444444444-6~~~~-----|
D|-444444444-222222222-4444444444-6~~~~-----|
A|-444444444-222222222-2222222222-4~~~~-----|
E|-222222222-000000000----------------------|

Bridge
e|-------------------------------------------------------|
B|-------------------------------------------------------|
G|-10/11-11-11-11-11-10/11-11-11-11-11-11-10/1110/11----|
D|-------------------------------------------------------|
A|-8-/9--9--9--9--9--8-/9--9--9--9--9--9--8-/9-8-/9-----|
E|-------------------------------------------------------|

e|------------------------------|
B|------------------------------|
G|-8~---6~---4~---6~--6---------|
D|-8~---6~---4~---6~--6---------|
A|-6~---4~---2~---4~--4---------|
E|------------------------------|

This is a pretty short song so you should get how to play it nice
And simple for ya! Enjoy!

| / slide up
| slide down
| h hammer-on
| p pull-off
| ~ vibrato
| + harmonic
| x Mute note

===============================================================================




Ваше мнение



Капча