Song: Do Your Feet Furt
By: Mxpx
Album: Life In General
Tabbed By: Josh Spencer

.=palm mute

Intro (Can I Call You Sweetheart)
E-------------------------------------------------------------------------
B-------------------------------------------------------------------------
G-------------------------------------------------------------------------
D-------------------0------------------77777------------------------0-----
A---1-1-1-1-0---0-1---3-0-------77777--55555--------1-1-1-1-0---0-1---3-0-
E-------------3-----------1-----55555-------------------------3-----------1

Verse

E--------------------------------------------------------------------------
B--------------------------------------------------------------------------
G--------------------------------------------------------------------------
D----------------77777---------------------0-------5-----------------77777
A--33333--77777--55555-----1-1-1-1-0--0--1--3-0----3---33333--77777--55555
E--11111--55555----------------------3----------1------11111--55555-------

Verse Continued

E--------------------------------------------------------------------------
B--------------------------------------------------------------------------
G--------------------------------------------------------------------------
D------------------0-------------------------------------------------------
A--1-1-1-1-0--0--1---3-0----2x---------------------------------------------
E------------3-----------1-------------------------------------------------

Chorus

E---------------------------------------------------------------------------
B---------------------------------------------------------------------------
G---------------------------------------------------------------------------
D--55555---33333---22222----7--5---33333---55555------------333--555--------
A--33333---11111---00000----5--3---11111---33333--333--555--111--333--------
E-------------------------------------------------111--333------------------
... ... ... ...

Play Verse Again Twice
Then Do Chorus Again

Bridge
(Do Your Feet Hurt)
E---------------------------------------------------------------------------
B---------------------------------------------------------------------------
G---------------------------------------------------------------------------
D------77------3--5-------77------33--55-----33333--55555---------77777--333
A--33--55--55--1--3---33--55--55--11--33-----11111--33333--33333--55555--111
E--11------33---------11------33---------------------------11111------------
..... ..... ..... ..... ...
E---------------------------------------------------------------------------
B---------------------------------------------------------------------------
G---------------------------------------------------------------------------
D--33--55555------------------77777------------------0----------------------
A--11--33333----33333--77777--55555--1-1-1-1-0---0-1---3-0------------------
E---------------11111--55555-------------------3-----------1----------------
.. .....
Outro
E---------------------------------------------------------------------------
B---------------------------------------------------------------------------
G---------------------------------------------------------------------------
D---------77777---------33--55----------777777----------3--5----------------
A--33333--55555--77777--11--33---33333--555555--777777--1--3--3-------------
E--11111---------55555-----------11111----------555555--------1--let ring---

there you have it. very easy to play.




Ваше мнение



Капча