Artist:MxPx
Song:Creation
Tuning:E A D G

Intro : Verse

G[-----------------------[
D[-----------------------[
A[-----------5>-------7--[
E[-7>---4>--------5------[

Chorus :

G[--------------------[
D[--------------------[
A[-----5---7----7----5[
E[--4>---7---7>---5---[

or

g-----------------------------------------
d-----------------------------------------
a--------5>-5-----7-----------5>-7------5-
e-7>--4>-------7------7>--4>--------5-----
OK I'm sorry, but im 100% sure of this tab.(I Hope)
keep on rockin' with the PUNK !
Tell me if this is wrong or right.




Ваше мнение



Капча