Song: Circumstance
Artist: MxPx
Album: Let It Happen/ Move to Bremerton
Tabbed By: Paul Assaad ([email protected])
This is such an excellent song. I only marked each note once, regardless of
how many times it's played. Just listen to the song to figure out how long
to play each note.
After Guitar Intro: (1)
G|------------------------------
D|--------2---------------------
A|--0--2------------------------
E|------------------------------
Prechorus: (2)
G|------------------------------
D|--2---------------------------
A|-----2--4--0--2---------------
E|------------------------------
Chorus: (3)
G|------------------------------
D|--2-----------2-----------2---
A|-----2--4--0-----2--4--0-----2
E|------------------------------
Verse: (4)
G|------------------------------
D|--2-----2---------------------
A|-----0-----2------------------
E|------------------------------
Chorus (finale): (5)
G|------------------------------
D|--2-----------2-----------2---
A|-----2--4--0-----2--4--2------
E|------------------------------
Order:(1),(2),(3),(4) (play this sequence twice)
(1),(2),(5) (play this sequence once, at the end)
*Any problems/corrections, email me.




Ваше мнение



Капча