T1: Brett Scanlon, [email protected], MxPx, Chick Magnet, 08/31/99
S1: easy song to play, can pick up on it in no time, Intro Bass Riff
---------------------------
---------------------------
-0-3-2-0-------------------
---------3-0-1-0-1-3------- repeat
c
---------
---------
-xx-x-5--
-xx-x-5--
-xx-x-3--
--------- do 4x's
Well He's a Chick Magnet if ya, know what i mean
c
-----------------------------
-----------------------------
---5----5--------------------
-----5--5--------------------
-3------3--------------------
----------------------------- Repeat UNTIL PRE CHORUS
PRE CHORUS
C C C F E F G REPEAT 4x'S
CHORUS
A A A A A A A A A F F F F F F C G 4X'S
THAN
A A A A A A A A A D




Ваше мнение



Капча