-------------------------------------------------------------------------------
Buildings Tumble - MxPx
-------------------------------------------------------------------------------

intro
e|----------|
B|----------|
G|-7--------|
D|-7--------|
A|-5--------|
E|----------|

Verse p1
e|---------------------------------------------------|
B|---------------------------------------------------|
G|--------777777-99999999--------777777-99999999-----|
D|-555555-777777-99999999--55555-777777-99999999-----|
A|-555555-555555-77777777--55555-555555-77777777-----|
E|-333333------------------33333---------------------|

Verse p2
e|-----------------------------------------------|
B|-----------------------------------------------|
G|-555555-999999-555555-555555-999999-777777-----|
D|-555555-999999-555555-555555-999999-777777-----|
A|-333333-777777-333333-333333-777777-555555-----|
E|-----------------------------------------------|
***** ***** ***** ***** ***** *****

Chorus
e|---------------------------------------------------------------|
B|---------------------------------------------------------------|
G|-555555-777777-----------555555-777777---------------555555----|
D|-555555-777777-555555555-555555-777777-555555-222222-555555----|
A|-333333-555555-555555555-333333-555555-555555-222222-333333----|
E|---------------333333333---------------333333-000000-----------|

Chorus cont……
e|-------------------------------------------|
B|-------------------------------------------|
G|-777777----------------555555-777777-------|
D|-777777-5555-4444-2222-555555-777777-5-----|
A|-555555-5555-4444-2222-333333-555555-5-----|
E|--------3333-2222-0000---------------3-----|

Solo
e|-------7-----------7-----------7-----10----14-10----|
B|-8---8---8---8---8---8---8---8---8------10----10----|
G|---7-------7---7-------7---7-------7----------------|
D|----------------------------------------------------|
A|----------------------------------------------------|
E|----------------------------------------------------|

Verse p3
e|------------------------------------------------|
B|------------------------------------------------|
G|-------777777-999999-555555-999999-777777-------|
D|-55555-777777-999999-555555-999999-777777-------|
A|-55555-555555-777777-333333-777777-555555-------|
E|-33333------------------------------------------|
***** ****** ****** ****** ****** ******

Intro
Verse p1
Verse p2
Chorus
Verse p1
Verse p2
Chorus
Solo
Verse p3
Chorus x3

Well that’s about it! enjoy and rate! [email protected]
[email protected]==============




Ваше мнение



Капча