Artist: Mxpx
Song: Brown Eyed Girl
Tabbed by: ME
Kay, this song is real simple, no distortion for intro, then jump into
distortion for the verses and chorus, Bass does the solo, I'll include that tab too
Intro: Finger picked, clean distortion
e-3-5-7-5-3--8-10-12-10-8-
B-------------------------
G-4-5-7-5-4--9-10-12-10-9- 4x
D-------------------------
A-------------------------
E-------------------------
Verses:
G C G D7 4x
hey where did we go, days when the rain came
Then the bridge:
C D G Em
with you, my brown eyed girl
C D7 G D7
You my, brown eyed girl
Repeat that, then do chorus
D7
Do you remember when....
then do verse chords
Bass solo
g-0-0-0-0-0-0----------------------0-0------------
d----------------------------0-2-2---------0-0----
a------------3-2-----0-2-3-3-----------0-2-----2-0
e----------------3-3------------------------------
Credit goes to my guitar teacher for the solo.
do the verse again, bridge, then chorus till fadeout




Ваше мнение



Капча